Misc - 12 Bar Blues Shuffle Chords & Tabs

 

12 Bar Blues Shuffle Chords & Tabs

Misc Chords & Tabs

Version: 1 Type: Tab 0 ratings
1 star 2 stars 3 stars 4 stars 5 stars
comments

12 Bar Blues Shuffle Tab

   
Here’s a new cool blues shuffle.
To be played in 2nd position. 
PROGRESSION: A7  D7  A7(2x)  D7(2x)  A7(2x)  E7  D7  A7(2x)
					h = hammer
		   A7
|------------------------------------------------|
|------------------------------------------------|
|------------------------------------------------|
|--2-------4---------5-----------------2-------|
|------0--------0--------0----3 h 4------------|
|------------------------------------------------|
[ Tab from: http://www.guitartabs.cc/tabs/m/misc/12_bar_blues_shuffle_tab.html ]
		   D7
|------------------------------------------------|
|------------------------------------------------|
|--2-------4--------5-------------------2------|
|------0--------0--------0----3 h 4------------|
|------------------------------------------------|
|------------------------------------------------|

		   E7
|------------------------------------------------|
|------------------------------------------------|
|------------------------------------------------|
|------------------------------------------------|
|--2------4----------5-------------------2-----|
|------0-------0----------0----3 h 4-----------|

Use the Moveable Minor Pentatonic for soloing.
Comments