Misc - 12 Bar Blues Country Rock Style Chords & Tabs

 

12 Bar Blues Country Rock Style Chords & Tabs

Misc Chords & Tabs

Version: 1 Type: Tab 1 rating
1 star 2 stars 3 stars 4 stars 5 stars
comments

12 Bar Blues Country Rock Style Tab

12 BAR BLUES 
CUNTRY rOCK STYLE
*=PLAY THAT STRING WITH THE STRING YOUR FINGERING ON

i made this up myself at shcool hope you enjoy it
[ Tab from: http://www.guitartabs.cc/tabs/m/misc/12_bar_blues_country_rock_style_tab.html ]
[------------------------------------------------------------------------------------------]
[------------------------------------------------------------------------------------------]
[--------------------------------------------------2-2-4-4-2-2-4-4-2-2---------------------]
[---2-2-4-4-2-2-4-4-2-2-4-4-2-2-4-4-2-2-4-4-2-2-4-4*-*-*-*-*-*-*-*-*-*2-2-4-4-2-2-4-4-2-2-4]
[---*-*-*-*-*-*-*-*-*-*-*-*-*-*-*-*-*-*-*-*-*-*-*-*-------------------*-*-*-*-*-*-*-*-*-*-*]
[------------------------------------------------------------------------------------------]
carry straight on from last bar
[------------------------------------------------------------------------------------------]
[------------------------------------------------------------------------------------------]
[-----------------2-2-4-4-2-2-4-4----------------------------------------------------------]
[-----------------*-*-*-*-*-*-*-*-2-2-4-4-2-2-4-4-22222------------------------------------]
[--2-2-4-4-2-2-4-4----------------*-*-*-*-*-*-*-*-*****------------------------------------]
[--*-*-*-*-*-*-*-*--------------------------------*****------------------------------------]

any problems email me at womenmagnet@yahoo.co.uk
Comments