Misanthrope - Hypocondrium Forces Chords & Tabs

 

Hypocondrium Forces Chords & Tabs

Misanthrope Chords & Tabs

Version: 1 Type: Tab 0 ratings
1 star 2 stars 3 stars 4 stars 5 stars
comments

Hypocondrium Forces Tab

			MISANTHROPE - "HYPOCONDRIUM FORCES"
				Album "Visionnaire"

Transcribed by The Pastor from France

INTRO :
   GUITAR 1
|--------------------------------------------------------------|
|--------------------------------------------------------------|
|---------------------9-10-9-10--------------------------------|
|-------------------------------------------------10-9-10-9----|
|----0-0-0-0-0-0-0-0-------------0-0-0-0-0-0-0-0---------------|
|--------------------------------------------------------------|
     . . . . . . . .             . . . . . . . .

   GUITAR 2
|------------------------------------------------------------------|
|---------------a.h------------a.h------------a.h------------a.h---|
|----------------9--------------8--------------7--------------9----|
|------------------------------------------------------------------|
|----0--0--0--0-----0--0--0--0-----0--0--0--0-----0--0--0--0-------|
|------------------------------------------------------------------|
     .  .  .  .     .  .  .  .     .  .  .  .     .  .  .  .

RIFF 1 :
   GUITAR 1
|--------------------------------------------------------------|
|--------------------------------------------------------------|
|---------------------9-10-9-10--------------------------------|
|-------------------------------------------------10-9-10-9----|
|----0-0-0-0-0-0-0-0-------------0-0-0-0-0-0-0-0---------------|
|--------------------------------------------------------------|
     . . . . . . . .             . . . . . . . .

   GUITAR 2 (MUTED)
|------------------------------------------------------------------------|
|------------------------------------------------------------------------|
|------------------------------------------------------------------------|
|------------------------------------------------------------------------|
|------------------------------------------------------------------------|
|----7-7-7-7-7-7-7-7--6-6-6-6-6-6-6-6--5-5-5-5-5-5-5-5--4-4-4-4-4-4-4-4--|



RIFF 2 :
   GUITAR 1
|--------------------------------------------------------------------------------------|
|--------------------------------------------------------------------------------------|
|---------------------9-------------------8-------------------7-------------------6----|
|--------------------------------------------------------------------------------------|
|----0-0-0-0-0-0-0-0-----0-0-0-0-0-0-0-0-----0-0-0-0-0-0-0-0-----0-0-0-0-0-0-0-0-------|
|--------------------------------------------------------------------------------------|
     . . . . . . . .     . . . . . . . .     . . . . . . . .     . . . . . . . .

   GUITAR 2 > SAME AS RIFF 1

RIFF 3 :
   GUITARS 1 + 2
|----------------------------------------|
|----------------------------------------|
|------------------------9---------------|
|------------------7--5--9--10--9--10----|
|------------------7--5--7--10--9--10----|
|----5-5-5-5--5-5--5--3-----8---7--8-----|
     . . . .  . .

|-------------------------------------------------------------------|
|-------------------------------------------------------------------|
|------------------------9------------------------------------------|
|------------------7--5--9--9---------------------------------------|
|------------------7--5--7--9---------------------------------------|
|----5-5-5-5--5-5--5--3-----7----7-7-7-7-7-7-7-7-7-7-7-7-7-7-7-7----|
     . . . .  . .                . . . . . . . . . . . . . . . .

|--------------------------|
|--------------------------|
|----------9---------------|
|----7--5--9--10--9--10----|
|----7--5--7--10--9--10----|
|----5--3-----8---7--8-----|

|--------------------------------------------|
|--------------------------------------------|
|------------------------9-----------7--9----|
|------------------7--5--9--9----10--7--9----|
|------------------7--5--7--9----10--5--7----|
|----5-5-5-5--5-5--5--3-----7----8-----------|
     . . . .  . .

RIFF 4 :
   GUITARS 1 + 2
|--------------------|
|--------------------|
|--------------------|
|--------------------|
|--------------------|
|----5-5-5-5--5-5----|
     . . . .  . .

RIFF 5 :
   GUITAR 1
|--------------------|
|--------------------|
|--------------------|
|--------------------|
|--------------------|
|----5-5-5-5--5-5----|
     . . . .  . .
[ Tab from: http://www.guitartabs.cc/tabs/m/misanthrope/hypocondrium_forces_tab.html ]
   GUITAR 2
|----------------------------------------------|
|----------------------------------------------|
|----------------------------------------------|
|----------------------------------------------|
|----------------8-5-7--7-8-7-5----------------|
|----5--7--8--5------------------7-8-7--3/5----|

RIFF 6 :
   GUITAR 1
|----------------------------------------------|
|----------------------------------------------|
|----------------------------------------------|
|----------------------------------------------|
|----------------8-5-7--7-8-7-5----------------|
|----5--7--8--5------------------7-8-7--3/5----|

   GUITAR 2
|--------------------13-10-12--12-13-12-10--------------------|
|----10--12--13--10-------------------------12-13-12--8/10----|
|-------------------------------------------------------------|
|-------------------------------------------------------------|
|-------------------------------------------------------------|
|-------------------------------------------------------------|

RIFF 7 :
   GUITAR 1 + 2
|---------------------------------------------------|
|---------------------------------------------------|
|---------------------------------------------------|
|----7-----------9-----------10-----------10--10----|
|----7-----------9-----------10-----------10--10----|
|----5--5-5-5-5--7--7-7-7-7--8---8-8-8-8--8---8-----|
        . . . .     . . . .      . . . .

|-------------------------------------------|
|-------------------------------------------|
|----------------10--7--9-----------9--9----|
|----7-----------10--7--9-----------9--9----|
|----7-----------8---5--7--7-7-7-7--7--7----|
|----5--5-5-5-5-----------------------------|
        . . . .            . . . .

|-------------------------------------------|
|-------------------------------------------|
|----9-----------7--------------------------|
|----9-----------7--10--9-----------9--9----|
|----7--7-7-7-7--5--10--9-----------9--9----|
|-------------------8---7--7-7-7-7--7--7----|
        . . . .            . . . .

|-------------------------------------|
|-------------------------------------|
|-------------------------------------|
|----9--10--9--5--7-----------7--7----|
|----9--10--9--5--7-----------7--7----|
|----7--8---7--3--5--5-5-5-5--5--5----|
                     . . . .

RIFF 8 :
   GUITAR 2 APPROXIMATIVELY THE SOLO BUT...  (GUITAR 1 IS PLAYING RIFF 7)
|------------------13--12--12h13p12------------10h12p10--------|
|----10--13-12-10--------------------12h13p12------------13----|
|--------------------------------------------------------------|
|--------------------------------------------------------------|
|--------------------------------------------------------------|
|--------------------------------------------------------------|

|------------------13-12--12h13p12--12--12\10--10\8--8\7----|
|----10--13-12-10-------------------------------------------|
|-----------------------------------------------------------|
|-----------------------------------------------------------|
|-----------------------------------------------------------|
|-----------------------------------------------------------|

|----7h8p7-----7h8p7-------------|
|-----------8---------8--8/10----|
|--------------------------------|
|--------------------------------|
|--------------------------------|
|--------------------------------|

RIFF 9 :
   GUITAR 1 MUTED AND TREMOLO (THE GUITAR 2 PLAYS BACK=20
	    		       10000 NOTES ON RIFF 9 AND 10 THAT I CAN'T TRANSCRIBE)
|--------------------------------------||--------------------------------------|
|--------------------------------------||--------------------------------------|
|--------------------------------------||--------------------------------------|
|--------------------------------------||----6-6-6-6--5-5-5-5--4-4-4-4--0-0----|
|----6-6-6-6--5-5-5-5--4-4-4-4--0-0----||--------------------------------------|
|--------------------------------------||--------------------------------------|

RIFF 10 :
|-----------------------------------------------|
|-----------------------------------------------|
|-----------------------------------------------|
|-----------------------------------------------|
|----7--0-0-0--7p6--0-0-0--6p5--0-0-0--5h7p6----|
|-----------------------------------------------|
        . . .       . . .       . . .

Any corrections or suggestions :
 			e-mail me  Pastor@Wanadoo.fr
Comments