Misanthrope - 26 Chords & Tabs

 

26 Chords & Tabs

Misanthrope Chords & Tabs

Version: 1 Type: Tab 0 ratings
1 star 2 stars 3 stars 4 stars 5 stars
comments

26 Tab

MISANTHROPE - 2666...
        Album "Visionnaire"

=>transcribed by The Pastor from France

INTRO:
   BOTH GUITARS
|------------------------------------------|
|--------12--10------10--------------------|
|------10--------12------11--12--9--7/9----|
|----10------------------------------------|
|----sweep---------------------------------|
|------------------------------------------|

|-----------------------------------------12----|
|--------12--10------10---------------12--------|
|------10--------12------11--12--7h9------------|
|----10-----------------------------------------|
|----sweep--------------------------------------|
|-----------------------------------------------|



RIFF1:
  GUITAR1
|-------------------------------------------------|
|-------------------------------------------------|
|----77-99-77-99-77-99-77-99-77-99-77-99-77-99...-|
|-------------------------------------------------|
|-------------------------------------------------|
|-------------------------------------------------|

|-----------------------------------------|
|----77-88-1010-88-1010-1212-1010-1212----|
|-----------------------------------------|
|-----------------------------------------|
|-----------------------------------------|
|-----------------------------------------|

   GUITAR2 (+VARIATIONS AND NOTES ON THOSE CHORDS)
|-----------------|-----------------|
|-----------------|-----------------|
|----9----12--11--|--9----12--11----|
|----9----12--11--|--9----12--11----|
|----7----10--9---|--7----10--9-----|
|-----------------|-----------------|

|------------------------------------------------|
|------------------------------------------------|
|----9----12--11----12--11----11--12--11----9----|
|----9----12--11----12--9-----11--12--11----9----|
|----7----10--9-----10--9-----9---10--9-----7----|
|------------------------------------------------|



RIFF2:
   GUITAR1
|--------------------------------------------------|
|--------------------------------------------------|
|----/99--66-------/9--6-------------------a.h.----|
|-------------7-----------7--7/9--7----7/9--7------|
|--------------------------------------------------|
|--------------------------------------------------|

|-----------------------------------------------------------------|
|-----------------------------------------------------------------|
|----------------------------------------------a.h.-----a.h.------|
|----/12-12--11-11--9----/12--11--9----11--9----7---7-9--7--------|
|-----------------------------------------------------------------|
|-----------------------------------------------------------------|

   GUITAR2
|----------------------------------------------------|
|----------------------------------------------------|
|----------------------------------------------------|
|----7--7----7--7----6--6----6--6----5--5----5--5----|
|----7--7----7--7----6--6----6--6----5--5----5--5----|
|----5--5----5--5----4--4----4--4----3--3----3--3----|
[ Tab from: http://www.guitartabs.cc/tabs/m/misanthrope/26_tab.html ]
|------------------------------------------------|
|------------------------------------------------|
|------------------------------------------------|
|---------------4-----4---------------4-----4----|
|---------------4-----4---------------4-----4----|
|----2-2-2-2-2--2--2--2----2-2-2-2-2--2--2--2----|
     . . . . .     .       . . . . .     .



RIFF3:
   GUITAR1
|----------19--------17------------------|
|-------17--------15---------------------|
|----16--------14--------14-15----/17----|
|------------------------------15--------|
|----------------------------------------|
|----------------------------------------|

|----------19--------17---------------------------|
|-------17--------15------------------------------|
|----16--------14--------14-15----/17-16-15-16----|
|------------------------------15-----------------|
|-------------------------------------------------|
|-------------------------------------------------|

|-----------------------18-------------------18------------------------|
|----18---20-18-17-18-17----17---18/20-18-17----17---18/20-18-17-------|
|----------------------------------------------------------------16----|
|----------------------------------------------------------------------|
|----------------------------------------------------------------------|
|----------------------------------------------------------------------|

   GUITAR2 (1st time)
|------------------------|
|------------------------|
|------------------------|
|----7----6----5----4----|
|----7----6----5----4----|
|----5----4----3----2----|

   GUITAR2 (2nd time)
|-----------------------------------------------------------------|
|-----------------------------------------------------------------|
|-----------------------------------------------------------------|
|-----------------------------------------------------------------|
|-----------------------------------------------------------------|
|----5-5-5-5-5-5----4-4-4-4-4-4----3-3-3-3-3-3----2-2-2-2-2-2-----|
     . . . . . .    . . . . . .    . . . . . .    . . . . . .



RIFF4:
   GUITAR1 (LISTEN AT THE ALBUM TO HEAR
                HOW TO PLAY IT TROUGHT THE BASS PARTS)
|----------------------------------------|
|----------------------------------------|
|----------------------------------------|
|------------9-9-------------------------|
|--------9-9-----10-10-9-9---------------|
|----7-7-------------------10-10--6-6----|
     . . . . . .  .  . . .  .  .  . .
|--------------------------------------------------/----|
|----------------------12-12-11h12p11h12p11...--12/-----|
|----------------11-11----------------------wham bar----|
|------------9-9----------------------------------------|
|--------9-9--------------------------------------------|
|----7-7------------------------------------------------|
     . . . . . .  .  .  .  .
   GUITAR2
|---------------------------------------------|
|---------------------------------------------|
|---------------------------------------------|
|---------------------------------------------|
|---------------------------------------------|
|----7-7-7-7--10-10-10-10--6-6-6-6------6--2--|
     . . . .   .  .  .  .  . . . .     .  .


Any corrections or suggestions :
                        => e-mail me  Pastor@Wanadoo.fr
Comments