Minutemen - Validation Chords & Tabs

 

Validation Chords & Tabs

Minutemen Chords & Tabs

Version: 2 Type: Tab 0 ratings
1 star 2 stars 3 stars 4 stars 5 stars
comments

Validation Tab

Validation - Minutemen


--------|
---3----|
---2----|
---2----| (keep repeating this chord in intro)
--------|
--------|

--------5----------|
----3---5----------|
----4---6----------|
----5---7----------|
-------------------|
-------------------|

Those are the chords involved in the main part.  I think you'll be able to hear the rhythm.  The second 
is hit twice.

Next part:

----------------------|
--2--2-2-3--3-3-(12)--|
--3--3-3-4--4-4-(12)--|
--4--4-4-5--5-5-(12)--|
----------------------|
----------------------|
[ Tab from: http://www.guitartabs.cc/tabs/m/minutemen/validation_tab_ver_2.html ]
The ()s denote harmonics.  They aren't hit every time; you can hear them clearly ringing if they're there. 
The second time this part is played, the harmonics are on the 5th fret, lower three strings once, then 
on the 12th fret I think.

Final part:

--------------------------------------|
--------------------------------------|
--------------------------------------|
--------------------------------------|
-0--4-4-4--0-----0--4-4-4--0----------|
-------------0----------------0-------|

-----------------------------------|
-----------------------------------|
-----------------------------------|
------2-------------2--------------|
----3---3--0------3---3--0---------|
-1-----------0-1-----------0-------|

----------------------------1------|
-----------------------------------|
-----------------------------------|
------0------------0---------------|
----2---3-2-0----2---3-2-----------|
-3------------3----------3---------|

Tabbed by Phil from the NFC. Enjoy!
Comments