Minutemen - Two Beads At The End Chords & Tabs

 

Two Beads At The End Chords & Tabs

Minutemen Chords & Tabs

Version: 1 Type: Tab 0 ratings
1 star 2 stars 3 stars 4 stars 5 stars
comments

Two Beads At The End Tab

Band: Minutemen
Song: Two Beads at the End


tabbed by jam9383@yahoo.com


Intro/Bridge

e--8-8-8-8--5-5------------------6-5----------------------5-5---------|
B--8-8-8-8--5-5--9b-9r9p7---7----6-5--------------------6-5-5---------|
G-------------------------8---8--7-6--------------2-4-5---6-6---------|
D---------------------------------------------------------------------|
A-------------------------------------5-5-5-5/------------------------|
E---------------------------------------------------------------------|

e---------------------------8-7-6-5-3---------------------------------|
B-10-9-7------------------6-----------4-------6-8p6-------------------|
G--------10-7--4-6--------------------------7-------7p6-7p6-5-6-7-----|
D---------------------------------------------------------------------|
A---------------------------------------------------------------------|
E---------------------------------------------------------------------|

Verse
[ Tab from: http://www.guitartabs.cc/tabs/m/minutemen/two_beads_at_the_end_tab.html ]
e----------------5-----------------------------5----------------------|
B---7-7--6-6-6---5----------------7-7--6-6-6---5----------------------|
G---7-7--6-6-6---6--5-6-7-8-9b-8--7-7--6-6-6---6-5-6-7-8-9b-8---------|
D---7-7--6-6-6---7----------------7-7--6-6-6---7----------------------|
A---5-5--4-4-4---7----------------5-5--4-4-4---7----------------------|
E----------------5-----------------------------5----------------------|

Outro

e---------------------------------------------------------------------|
B--5-5-5-5-5-5--4-4-4-4-4-4--5-5-5-5-5-5--4-4-4-4-4-4-----------------|
G--4-4-4-4-4-4--4-4-4-4-4-4--4-4-4-4-4-4--4-4-4-4-4-4-----------------|
D--4-4-4-4-4-4--4-4-4-4-4-4--4-4-4-4-4-4--4-4-4-4-4-4-----------------|
A--2-2-2-2-2-2--2-2-2-2-2-2--2-2-2-2-2-2--2-2-2-2-2-2-----------------|
E---------------------------------------------------------------------|

e--0-0-0-0-0-0-0--2-2-2-2-2-2-2---------------------------------------|
B--0-0-0-0-0-0-0--2-2-2-2-2-2-2---------------------------------------|
G--1-1-1-1-1-1-1--2-2-2-2-2-2-2---------------------------------------|
D--2-2-2-2-2-2-2--1-1-1-1-1-1-1---------------------------------------|
A--2-2-2-2-2-2-2--2-2-2-2-2-2-2---------------------------------------|
E--0-0-0-0-0-0-0--0-0-0-0-0-0-0---------------------------------------|

any comments/corrections contact me, please rate
Comments