Minutemen - Toadies Chords & Tabs

 

Toadies Chords & Tabs

Minutemen Chords & Tabs

Version: 2 Type: Bass Tab 0 ratings
1 star 2 stars 3 stars 4 stars 5 stars
comments

Toadies Bass Tab

Toadies ? Minutemen

Main riff:

G---------------------------------------|
D---------------------------------------|
A--------------5-6-7--------------------|
E--6--6-5-------------5-6-7-8-----------|

Chorus: slide up and down the fret and play that A note when necessary
[ Tab from: http://www.guitartabs.cc/tabs/m/minutemen/toadies_btab_ver_2.html ]
Little bit after the guitar solo

G-------------------------------------------------------------------------|
D-------------------------------------------------------------------------|
A---------/6-5-6-5-------/8-7-8-7--------/6-5-6-5--------5-6-7------------|
E---5---------------5--------------5---------------5------------5-6-7-8---|

Enjoy!
Comments