Minutemen - Spillage Chords & Tabs

 

Spillage Chords & Tabs

Minutemen Chords & Tabs

Version: 1 Type: Tab 0 ratings
1 star 2 stars 3 stars 4 stars 5 stars
comments

Spillage Tab

Spillage – The Minutemen

Intro and verse:

E---------------------------------------------------
B---------------------------------------------------
G--6--------------------------x7--------------------
D--6--------------------------x7---------x6---------
A--4--------------------------x5---------x6---------
E----------------------------------------x4---------repeat lotsa times.
         “Clear and dusty day in June…” 


“What makes my heart run?” part:

E------------------------------------
B------------------------------------
G--11-x11-------x7-----x9------------
D--11-x11-------x7-----x9------------
A---9--x9-------x5-----x7------------
E------------------------------------ 2x

Bass break, then solo:
[ Tab from: http://www.guitartabs.cc/tabs/m/minutemen/spillage_tab.html ]
E--9-9-9---9-9-9---9-9-9---9-9-9---8-8-8---8-8-8---8-8-8---8-8-8----10--
B--------------------------------------------------------------------8--
G--------------------------------------------------------------------7--
D--------------------------------------------------------------------7--
A-----------------------------------------------------------------------
E----------------------------------------------------------------------- jam on that last chord a bit, 
play this whole section 4 times.

End with:

E-------------------------------------------
B-------------------------4--4--4-----------
G--2x----6x------4x-------4--4--4-----------
D--2x----6x------5x-------4--4--4-----------
A--0x----4x------5x-------2--2--2-----------
E----------------3x-------------------------

enjoy! questions? comments? want to let me know how much you love me?
aaaawwwwww... I love you, too! e-mail me at pape114@whoever.com
Comments