Minutemen - Spillage Chords & Tabs

 

Spillage Chords & Tabs

Minutemen Chords & Tabs

Version: 2 Type: Bass Tab 0 ratings
1 star 2 stars 3 stars 4 stars 5 stars
comments

Spillage Bass Tab

"Spillage" by  The Minutemen
Tabbed by Badfrancis@aol.com

Intro:
G| ---------------------------------------------------------|  
D| --9-slide-11-9--------------------4--6--7--6--7--9--12---|
A| ----------------12-11-9-7-9-11--5------------------------|
E| ---------------------------------------------------------|

Verse:   Play 9 times
G| --------------------------------------------------|  
D| --11-9---------------------4--6--7--6--7--9--12---|
A| --------12-11-9-7-9-11--5-------------------------|
E| --------------------------------------------------|
[ Tab from: http://www.guitartabs.cc/tabs/m/minutemen/spillage_btab_ver_2.html ]
Chorus:
     Play 2 Times
G| -------------------------------------|
D| -------------------------------------|
A| --9-9---12-11-12---5--4-5---7--5-7---|
E| -------------------------------------|
     Play 2 Times
G| ------------------------|
D| --------4-----7-----2---|
A| --2---------------------|
E| ------------------------|

Solo:      Play 4 Times
G| ---------------------------------|---------------------------------|
D| -----3-----3--5--6--5--3--5--3---|-----2-----2--4--5--4--2--4--2---|
A| --4-----4------------------------|--3-----3------------------------|
E| ---------------------------------|---------------------------------|

G| ---------------------------------| --------------------------------|
D| ---------------------------------|---------------------------------|
A| -----2-----2--4--5--4--2--4--2---|-----2-----2--4--5--4--2--4--2---|
E| --3-----3------------------------|--3-----3------------------------|

Outro:
G| ----------2----------------------------------------------------|
D| ---------------------------------------------------------------|
A| --0----0-----0----4----4--4--4----10----10--10--10----2--2--2--|
E| ---------------------------------------------------------------|


Comments