Minutemen - Shit You Hear At Parties Chords & Tabs

 

Shit You Hear At Parties Chords & Tabs

Minutemen Chords & Tabs

Version: 2 Type: Tab 0 ratings
1 star 2 stars 3 stars 4 stars 5 stars
comments

Shit You Hear At Parties Tab

Shit You Hear At Parties - Minutemen

Main little riff:

-7---x7-x7x7-----10-10-10--|
-7---x7-x7x7------7--7--7--|
-7---x7-x7x7------7--7--7--|
---------------------------|
---------------------------|
---------------------------|

Solo:
(0:27)

-------------------------------------------------------------------|
----------------------------------15^(17)--15^(17)-(17)-(17)-(17)--|
-14^(16)--14^(16)-(16)-(16)-(16)-----------------------------------|
-------------------------------------------------------------------|
-------------------------------------------------------------------|
-------------------------------------------------------------------|

-15^(17)^(15)-12---------------------------------------------------|
-----------------15---12-------------------------------------------|
----------------------------------14--12--14-----12---12-----------|
-------------------------------------------------------------------|
-------------------------------------------------------------------|
-------------------------------------------------------------------|
[ Tab from: http://www.guitartabs.cc/tabs/m/minutemen/shit_you_hear_at_parties_tab_ver_2.html ]
-------------------------------------------------------------------|
-------------------------------------------------------------------|
--------------------------------12---12--12---14^(16)^14----12-----| (stopped part here)
-14-12-14-12---12----12--14----------------------------------------|
-------------------------------------------------------------------|
-------------------------------------------------------------------|

(0:34)
-10--10-10---10--10-10-------10-10-------10----10-|
-10--10-10---10--10-10-------10-10-------10----10-|
--------------------12^(14)-----12^(14)-----------|
--------------------------------------------------|
--------------------------------------------------|
--------------------------------------------------|

-----------------------------------------------------|
-13p12p10-----------------------------------10-------|
----------10^------------------------10--10-10---12^-|
---------------12--12-10-12-10--12-------------------|
-----------------------------------------------------|
-----------------------------------------------------|

-12-------12-12--12-12-12--12-------12-12--12------12-12-|
-12-------12-12--12-12-12--12-------12-12--12------12-12-|
-14^(16)-------------------14^(16)---------14^(16)-------|
---------------------------------------------------------|
---------------------------------------------------------|
---------------------------------------------------------|

----------------|
-15^(17)--------|
----------------|
----------------|
----------------|
----------------|

Tabbed by Phil from the NFC. Enjoy.
Comments