Minutemen - Roar Of The Masses Could Be Farts Chords & Tabs

 

Roar Of The Masses Could Be Farts Chords & Tabs

Minutemen Chords & Tabs

Version: 1 Type: Bass Tab 0 ratings
1 star 2 stars 3 stars 4 stars 5 stars
comments

Roar Of The Masses Could Be Farts Bass Tab

Band: Minutemen
Song: The Roar of the Masses Could be Farts


tabbed by jam9383@yahoo.com


Intro

G---------------------------------------------------------------|
D---------------------------------------------------------------|
A----7/---------------------------------------------------------|
E---------------------------------------------------------------|


Verse

x4
G-------------------------|--------------------------------------|
D-------------------------|--------------------------------------|
A----5--------------------|------5-----7-8-9---------------------|
E-0------0--3-4-5---------|--0-----0-----------------------------|

Bridge
[ Tab from: http://www.guitartabs.cc/tabs/m/minutemen/roar_of_the_masses_could_be_farts_btab.html ]
G---------------------------------------------------------------|
D---------------------------------------------------------------|
A-------5--------------5----------------------------------------|
E---8-------0----8----------0-----------------------------------|

Pre Verse

G---------------------------------------------------------------|
D---------------------------------------------------------------|
A---------------------------------------------------------------|
E-----5/--------------------------------------------------------|

Solo

G---------------------------------------------------------------|
D---------------------------------------------------------------|
A------------------------------------/7-------------------------|
E---0-----0------0----------------------------------------------|

any comments/corrections contact me, please rate
Comments