Minutemen - Please Be Gentle With Me Chords & Tabs

 

Please Be Gentle With Me Chords & Tabs

Minutemen Chords & Tabs

Version: 1 Type: Bass Tab 0 ratings
1 star 2 stars 3 stars 4 stars 5 stars
comments

Please Be Gentle With Me Bass Tab

   
Band: Minutemen
Song: Please Be Gentle with Me

Eb tuning

tabbed by jam9383@yahoo.com


Verse

heavy/hard plucking
G---------------------------------------------------------------|
D---------------------------------------------------------------|
A---------------------------------------------------------------|
E---9------9--9-----7-------9-----9--9---------7----9-----------|

G---------------------------------------------------------------|
D---------------------------------------------------------------|
A--6--7------7---7----6-------7-------7--7----6-----------------|
E---------------------------------------------------------------|

Bass Solo
[ Tab from: http://www.guitartabs.cc/tabs/m/minutemen/please_be_gentle_with_me_btab.html ]
G---------------------------------------------------------------|
D-------------------------------5-----3----5-----7--------------|
A----------------3--5--7----------------------------------------|
E--9-9----3--6------------9-9-----------------------------------|

G---------------------------------------------------------------|
D---------------------------------------------------------------|
A----------------3--5--7----------------------------------------|
E--9-9----3--6--------------------9---9-------------------------|

heavy/hard plucking
G--------------------------------------------------------------------|
D--------------------------------------------------------------------|
A--------------------------------------------------------------------|
E---9---7---9----7---------------------------------------------------|

any comments/corrections contact me , please rate
Comments