Minutemen - June 16th Chords & Tabs

 

June 16th Chords & Tabs

Minutemen Chords & Tabs

Version: 2 Type: Bass Tab 0 ratings
1 star 2 stars 3 stars 4 stars 5 stars
comments

June 16th Bass Tab

June 16th - Minutemen

Riff 1:

G----------------------------------------|
D--------13----------9-------8-------11--|
A--/10--------10/7-------6-------9-------|
E----------------------------------------| Play this 2 times.

Riff 2:

G---------------------------------------------------------------------------------------|
D-------13-------13---------9------9-------8------8---------11---14p12------------------|
A--10------10-------10/7------7------7/6------6-------6/9-------------14---12-13--------|
E---------------------------------------------------------------------------------------|
[ Tab from: http://www.guitartabs.cc/tabs/m/minutemen/june_16th_btab_ver_2.html ]
G---------------------------------------------------------------------------------------|
D-------13-------13---------9------9------8------8---------11-----11--------------------|
A--10------10-------10/7------7------7/6------6-------6/9------9------------------------|
E---------------------------------------------------------------------------------------|

Riff 3:

G--------------------------------------|
D----------0----0--4----4--------------|
A--1----1------------------------------|
E--------------------------2-----------|Play this four times.

Repeat Riff 1 and 2, end Riff 2 with:

G----------------------------------------------------------------|
D---------11------11--------11----11--------11----11-11----------|
A--6/9--------9--------9-9------9------9-9------9---------9------|
E----------------------------------------------------------------|

Enjoy! Want to contribute? E-mail me at pape114@whoever.com
Comments