Minutemen - Jesus And Tequila Chords & Tabs

 

Jesus And Tequila Chords & Tabs

Minutemen Chords & Tabs

Version: 2 Type: Tab 0 ratings
1 star 2 stars 3 stars 4 stars 5 stars
comments

Jesus And Tequila Tab

Jesus And Tequila - Minutemen

Main riff:

-----3-----4------|
-3h4---4h5---0--1-|
----------------2-|   (repeat 2x, end on E5)
----------------2-|
----------------0-|
------------------|

------------------|
-----4-----5------|
-2h3---3h4---0----|   (repeat)
----------------2-|
----------------2-|
----------------0-|

Interlude:

---2-2--2---0-0-0---0-0-0--0--2--3--2------|
---3-3--3---3-3-----3-3----3---------------|
---2-2--2---2-2-----2-2----2---------------|
-0--------0-------0------------------------|
-------------------------------------------|
-------------------------------------------|
[ Tab from: http://www.guitartabs.cc/tabs/m/minutemen/jesus_and_tequila_tab_ver_2.html ]
---2-0--0---0-3-0----0-0--0-----0--0-------|
---3-3--3---3-3-----3----------3-----------|
---2-2--2---2-2----2----------2------------|
-0--------0-------0----------0-------------|
-------------------------------------------|
-------------------------------------------|

-10---8---7---5/6/7----10---8---7---5------|
-10---8---7---5/6/7----10---8---7---5------|
-11---9---7---5/6/7----10---8---7---5------| (2x)
-------------------------------------------|
-------------------------------------------|
-------------------------------------------|

Come back in to main riff on Am. End on Am.

h - hammer-on
/-slide

Tabbed by Phil from the NFC. Enjoy!
Comments