Minutemen - Do You Want New Wave Chords & Tabs

 

Do You Want New Wave Chords & Tabs

Minutemen Chords & Tabs

Version: 2 Type: Bass Tab 0 ratings
1 star 2 stars 3 stars 4 stars 5 stars
comments

Do You Want New Wave Bass Tab

   
@Song: Do You Want New Wave (or Do You Want the Truth)?
Written by Mike Watt
Recorded by Minutemen on album "Double Nickles on the Dime" (SST)
File format: tab, btab
Transcription: Gary Von Colln

The main chords in this song are Bm and D.  The Bridge is Fm.  The
guitar part uses fast right hand picking or slow strums so that the
individual notes from the chords sound.  Use your thumb and index
finger or thumb and middle finger to pluck the two strings for the
turnaround riff.

I have also tabbed the bass part.

--------------------------------------------------------------------------
[ Tab from: http://www.guitartabs.cc/tabs/m/minutemen/do_you_want_new_wave_btab_ver_2.html ]
Bass Intro
   D                          Bm              D
G-|--------------------------|--------------|--------------|--------------
D-|--------------------------|--------------|--------------|--------------
A-|--5-----5-----5-----5-----|--2--2--2--2--|--0--0--0--0--|--------------
E-|-----5-----5-----5-----5--|--------------|--------------|--------------

Bass after first verse
   D
G-|--------------|--------------|
D-|--------------|--------------|
A-|-/5--3--2--3--|--0--0--0--0--|
E-|--------------|--------------|

Bass turn around riff
    Bm  A  G  A    D
G-|--------------|--------------|
D-|--9--7--5--7--|--------------|
A-|--------------|--5--5--5--5--|
E-|--------------|--------------|

Bass riff after turn around riff
    D
G-|--------------|--------------|--------------|--------------|
D-|--------------|--------------|-/7--5--4--5--|--4-----------|
A-|-/8--7--6--5--|--------------|--------------|-----7--5--7--|
E-|--------------|--5--6--7--8--|--------------|--------------|

Bass bridge
   Fm
G-|--------------|----------------
D-|--------------|--4--2--0-------
A-|--------0--2--|-----------4----
E-|--2--4--------|----------------


Comments