Minutemen - Big Foist Chords & Tabs

 

Big Foist Chords & Tabs

Minutemen Chords & Tabs

Version: 1 Type: Tab 0 ratings
1 star 2 stars 3 stars 4 stars 5 stars
comments

Big Foist Tab

Band: Minutemen
Song: The Big Foist


tabbed by jam9383@yahoo.com


Intro/Bridge

 acoustic version (A.H)         original version
e--7--------------------|---------------------------------------------|
B------5-----7----------|---------------------------------------------|
G------------------4----|---------------------------------------------|
D-----------------------|----10---------------------------------------|
A-----------------------|---------8---10------------------------------|
E-----------------------|-------------------8-------------------------|

Verse Riff

x2
acoustic version            original version
e------------------------|--------------------------------------------|
B------------------------|-----------------x-x-x-x--------------------|
G------1-----------------|---------2-------x-x-x-x--------------------|
D---------2---2h4p2p0----|------------3----x-x-x-x--------------------|
A---2--------------------|------3-------------------------------------|
E------------------------|--------------------------------------------|

  acoustic version                  original version
e-------------------------------|-------------------------------------|
B-------------------------------|-------------------------------------|
G-------------------------------|-------------------------------------|
D-------------------------------|-------------------------------------|
A----5--4----------5----4-------|--6---5----------6----5--------------|
E-----------5----------------5--|-----------6----------------6--------|

Solo

original version (acoustic version is the same just half-step down)
e---------------------------------------------------------------------|
B------------------------5-7-8---10---10-9b-10-9-7-5------------------|
G-----5-7-5-7b---7-5-7-5------------------------------7b-5-7-5~-------|
D--7------------------------------------------------------------------|
A---------------------------------------------------------------------|
E---------------------------------------------------------------------|
[ Tab from: http://www.guitartabs.cc/tabs/m/minutemen/big_foist_tab.html ]
e---------------------------------------------------------------------|
B---------------------------------------------------------------------|
G--5-7b-5---5-------------5--5-7b-5---5-----------5--5-7b-5---5---5-7-|
D---------7---7-5-----5-7-----------7---7-5---5-7-----------7---7-----|
A------------------7------------------------7-------------------------|
E---------------------------------------------------------------------|

e---------------------------------------------------------------------|
B--5-8\10-12\13-15b--15b-15b--15b--13----13---------------------------|
G-------------------------------------14----14-12-14b-----12----------|
D------------------------------------------------------14----14-------|
A---------------------------------------------------------------------|
E---------------------------------------------------------------------|

e----------------------------8----8-----------------------------------|
B-----------------------5-8----5--------6-----8-----------------------|
G-------------------5-7-----------------------------8-----------------|
D--14b---12-----5-7---------------------------------------------------|
A------14--14/7-------------------------------------------------------|
E---------------------------------------------------------------------|

Fill in Verse near Outro

   Original version               acoustic version
e------------------------------|---------------------------------------|
B--3--3--3--3---3-3----3-------|--2--2--2--2---2-2----2----------------|
G--3--3--3--3---3-3----4-------|--2--2--2--2---2-2----3----------------|
D--3--3--3--3---3-3----5-------|--2--2--2--2---2-2----4----------------|
A--1--1--1--1---1-1----5-------|--0--0--0--0---0-0----4----------------|
E----------------------3-------|----------------------2----------------|

Outro

   Original version                 acoustic version
e-------------------------------|--------------------------------------|
B-------------------------------|--------------------------------------|
G---------4--3--------5--4--3---|---------3--2-----8--4--3--2----------|
D---5--4--4--3--3--2--5--4--3---|---4--3--3--2--2--8--4--3--2----------|
A---5--4--2--1--3--2--3--2--1---|---4--3--1--0--2--6--2--1--0----------|
E---3--2--------1--0------------|---2--1--------0----------------------|

Any comments/corrections contact me, please rate
Comments