Minus The Bear - Hooray Chords & Tabs

 

Hooray Chords & Tabs

Minus The Bear Chords & Tabs

Version: 1 Type: Tab 0 ratings
1 star 2 stars 3 stars 4 stars 5 stars
comments

Hooray Tab

   
artist: minus the bear
song: hooray
album: menos el oso
tabbed by sred4 (srednaxela@aol.com)

not sure about parts with *

intro
guitar1-tapped clean
e|-14-----------------------------------------|
b|-12-----x48---------------------------------|
g|--------------------------------------------|
d|--------------------------------------------|
a|--------------------------------------------|
D|--------------------------------------------|
guitar 2 comes in on the 44th of above (half way thru last count)*
e|-9-p9-9-h9-9-h9-9-h9------------------------|
b|-12p9-9-h9-9-h9-9-h9------------------------|
g|-11p9-11h9-11h9-9-h9------------------------|
d|-9-p9-11h9-9-h9-11h9------------------------|
a|-9-p9-9-h9-9-h9-9-h9------------------------|
D|--------------------------------------------|

verse x2
guitar 1 picked clean
e|---4---0---4---0---4---0---4---0------------|
b|-0---0---0---0---0---0---0---0--------------|
g|--------------------------------------------|
d|--------------------------------------------|
a|--------------------------------------------|
D|--------------------------------------------|
contin
e|---2---4---2---4---2---4---2h0 2h0 0--------|
b|--------------------------------------------|
g|-2---2---2---2---2---2---2------------------|
d|--------------------------------------------|
a|--------------------------------------------|
D|--------------------------------------------|
guitar 2-clean tapped*
e|--------------------------------------------|
b|--------------------------12p9--------------|
g|-13--9---13---9---13---9------11p9-13p9-----|
d|-11--7---11---7---11---7---------------11t14|
a|--------------------------------------------|
D|--------------------------------------------|
contin
e|--------------------------------------------|
b|--------------------------12p9--------------|
g|-11--13--11--13--11--13-------11p9-13p9-----|
d|--9--11---9--11---9--11----------------11t14|
a|--------------------------------------------|
D|--------------------------------------------|
[ Tab from: http://www.guitartabs.cc/tabs/m/minus_the_bear/hooray_tab.html ]
chorus (this whole thing counts as 1)
guitar 1-tapped distortion (fast)
e|--------------------------------------------|
b|--------------------------------------------|
g|--------------------------------------------|
d|-11p2h4-9p2h4-7p2h4-9p2h4-14p2h4-11p2h4-----| x4
a|--x-x-x-x-x-x-x-x-x-x-x-x--x-x-x--x-x-x-----|
D|-11p2h4-9p2h5-7p2h4-9p2h4-14p2h4-11p2h4-----|
guitar 2- picked distorion* 
e|--------------------------------------------|
b|--------------------------------------------|
g|-6-6-xx-4-x-x-x-4--x--x---x--x--x---x-------|
d|-6-6-xx-4-x-x-x-4--x--x---x--x--x---x-------|
a|-4-4-xx-2-x-x-x-2--x--x---x--x--x---x-------|
D|--------------------------------------------|
contin
e|--------------------------------------------|
b|--------------------------------------------|
g|-x-x--4---x-x--4--x-x--4---x-x--4-----------|
d|-x-x--4---x-x--4--x-x--4---x-x--4-----------|
a|-x-x--2---x-x--2--x-x--2---x-x--2-----------|
D|--------------------------------------------|
contin (hit 4th harmonics
   here\/ and \/)
e|--------------------------------------------|
b|-----xx----xxxx-----------------------------|
g|-6-6-xx-66-xxxx----x--x---x--x--x---x-------|
d|-6-6-xx-66-xxxx----x--x---x--x--x---x-------|
a|-4-4-xx-44-xxxx----x--x---x--x--x---x-------|
D|--------------------------------------------|
contin
e|--------------------------------------------|
b|--------------------------------------------|
g|-x-x--4---x-x--4--x-x--4---x-x--4-----------|
d|-x-x--4---x-x--4--x-x--4---x-x--4-----------|
a|-x-x--2---x-x--2--x-x--2---x-x--2-----------|
D|--------------------------------------------|

intro
g1 plays part 16 times
g2 comes in on 14th time

verse x3

chorus x2

bridge
guitar 1
e|-4-4--4-4--4-4--4-4--0-0--0-0--2-2--2-0-----|
b|-0-0--0-0--0-0--0-0--0-0--0-0--0-0--0-0-----|
g|--------------------------------------------|x6
d|--------------------------------------------|
a|--------------------------------------------|
D|--------------------------------------------|
guitar 2 after 1 measure of guitar 1
e|--------------------------------------------|
b|-----------6~---6~---4~--6~----4~--4~-------|
g|-----------4~---6~---6~--6~----2~--0~-------|
d|-6~-----------------------------------------|
a|-4~-----------------------------------------|
D|--------------------------------------------|
then for the 4 other times
e|--------------------------------------------|
b|--------------------------------------------|
g|-4-6--4-4--4-6--4-4--6-6--4-6--6-6--4-6-----|x4
d|-6-6--2-4--6-6--2-4--6-6--6-6--6-6--6-6-----|
a|--------------------------------------------|
D|--------------------------------------------|

verse 1 and a half times
then intro g1 x16

chorus x1
then guitar 1 (tapping distortion)with phaser on
e|--------------------------------------------|
b|--------------------------------------------|
g|--------------------------------------------|
d|-11p2h4-9p2h4-7p2h4-11p2h4p2h4-11p2h4p2h4---|x3
a|--------------------------------------------|
D|--------------------------------------------|
on 4th time
e|------------------------------------------------|
b|------------------------------------------------|
g|------------------------------------------------|
d|-11p2h4p2h4-11p2h4p2h4-11p2h4p2h4-11p2h4p2h4-14~|
a|------------------------------------------------|
D|------------------------------------------------|
guitar 2 picking distortion X2 (on upbeats-should take as long as above)
e|--------------------------------------------|
b|--------------------------------------------|
g|--6--6--6--6--4--4--4--4--------------------|
d|--6--6--6--6--4--4--4--4--------------------|
a|--4--4--4--4--2--2--2--2--------------------|
D|--------------------------------------------|

regular chorus x2
guitar 1 ends on
e|--------------------------------------------|
b|--------------------------------------------|
g|--------------------------------------------|
d|-14p2h4p2h4-9p2h4p2h4-11--------------------|
a|-----------------------x--------------------|
D|----------------------11--------------------|
guitar 2 ends on
e|--------------------------------------------|
b|--------------------------------------------|
g|-6------------------------------------------|
d|-6------------------------------------------|
a|-4------------------------------------------|
D|--------------------------------------------|
Comments