Minus The Bear - Hey Wanna Throw Up Chords & Tabs

 

Hey Wanna Throw Up Chords & Tabs

Minus The Bear Chords & Tabs

Version: 1 Type: Tab

Hey Wanna Throw Up Tab

E|---------7p0---------5p0-----0---------0------------0------------0--------|
B|-----8-------8---3h5-----3h5-----------0------------0------------0--------|
G|-------9-------9-------------------0---0--------0---0--------0---0--------|
D|---9-----------------------------2---2-2------2---2-2------2---2-2------2-|
A|-7-----------------------------3-------3----3-------3----3-------3----3---|
E|--------------------------------------------------------------------------|
[ Tab from: http://www.guitartabs.cc/tabs/m/minus_the_bear/hey_wanna_throw_up_tab.html ]
E|--------------------------------------------------------------------------|
B|-----12-------------------------------------------------------------------|
G|-0---12-------------------------------------------------------------------|
D|---2-12-------------------------------------------------------------------|
A|--------------------------------------------------------------------------|
E|--------------------------------------------------------------------------|


This should be correct. I figured out how to play it a few days ago with a fellow
who is also a huge M.T.B fan, by listening to the C.D Highly Refined Pirates and
just going there.(took a while to figure out the hammer on & pull off part) I
really hope it gets put on the site, because there are very few Minus the Bear
tabs on the web.  This is my very M.T.B song, and I guarantee it's 100 percent
correct.  Because it uses a barre chord for it's root note, it might be somewhat
tricky 4 those of you who are begginers or those of you who don't play many chords.
Enjoy!

Tablature explanation: H= Hammer On
                       p= Pull Off
Tuning : Standard