Minus The Bear - Absinthe Party At The Fly Honey Warehouse Chords & Tabs

 

Absinthe Party At The Fly Honey Warehouse Chords & Tabs

Minus The Bear Chords & Tabs

Version: 1 Type: Tab 0 ratings
1 star 2 stars 3 stars 4 stars 5 stars
comments

Absinthe Party At The Fly Honey Warehouse Tab

   
Minus the Bear- Absinthe Party at the Fly Honey Warehouse

Tabbed by Tom Arnstein and help from Mike Winkler

drop D

guitar 1 (left speaker)

0:00 riff 1 x30
e|----------------------------------
B|----------------------------------
G|---------------------------------- 
D|--------0-5p0----0-5p0------------
A|----------------------------------
D|------5--------5------------------


bass- plays throughout until 1:14 (same as guitar)

0:00 x30
G|----------------------------------------------------
D|----------------------------------------------------
A|----------------------------------------------------
D|--0-5--0-5--0-5--0-5--0-9--0-10--0-2--0-2--0-2--0-2-


guitar 2 (right speaker)

0:12 riff 2 x5
e|----------------------
B|--------8-----8-------
G|--------7-----7-------
D|----------------------
A|------5----5-5--------
D|----0-5----5-5--------

e|------------------------------------
B|------------------------------------
G|------4/7--9----7----------7-7-7-7--
D|--------------9-----7-7h9--9-9-9-9--
A|------------------------------------
D|------------------------------------

*pause*


guitars 1 and 2

1:14 riff 3 x4

e|---------------------------------------------------------------------10-12----
B|-----------------------------------------------------------10-12--12----------
G|----------12p0---------12p0---------12p0---------12p0---12--------------------
D|---x12-10-------x12-10-------x12-10-------x12-10------------------------------
A|------------------------------------------------------------------------------
D|------------------------------------------------------------------------------

e|-----------------------------------
B|--------8---8----8p5---------------   ()- 4th time don't play. let B|-5 ring.
G|--------7-7-7--------(77p4)--------
D|--------5-0-5p0--------------------
A|-----------------------------------
D|-----------------------------------


guitar 2

2:02 riff 4

e|------------------------------------------------------------------------
B|------------------------------------------------------------------------
G|------------------------------------------------------------------------
D|---------12-12-9-9-----------9-9-7-7--------7-7-5-5---------5-5----7-7--
A|------------------------------------------------------------------------
D|---10-10-----------10-10-7-7---------7-7-5-5--------5-5-2-2-----5-5-----


guitar 1

2:02 riff 5 (very quiet)

e|------------------------------------------------------------------------
B|------------------------------------------------------------------------
G|--------12-12-----------------------------------------------------------
D|--------------12-12-------------------------7-7-5-5---------5-5----7-7--
A|--------------------12/14v--17v-----------------------------------------
D|-------------------------------------7-7-5-5--------5-5-2-2-----5-5-----


guitars 1 and 2

2:28 riff 6 x2
[ Tab from: http://www.guitartabs.cc/tabs/m/minus_the_bear/absinthe_party_at_the_fly_honey_warehouse_tab.html ]
e|---------------------------------------------------------------------
B|---13--13--13--13--5--5----------------------------------------------
G|---12--12--12--12--4--4---------------7p0----------------------------
D|---10--10--10--10--2--2---------97p0--------------------------------
A|---10--10--10--10--2--2------7---------------------------------------
D|---10--10--10--10--2--2----------------------------------------------


guitar 1

2:41 riff 7 x1

e|----------------------------------
B|----------------------------------
G|----------------------------------
D|---12/14-----14/17v---------------
A|----------------------------------
D|----------------------------------


guitar 2

2:41 riff 8 x1

e|----------------------------------
B|----------------------------------
G|----------------------------------
D|------12--10-----7--5-------------
A|----------------------------------
D|----------------------------------


guitar 1

3:45 riff 9 x20

e|----------------------------------
B|----8-7---------------------------
G|--------7h9-7p0-------------------
D|----------------------------------
A|----------------------------------
D|----------------------------------


guitar 2 (quiet)

3:45 riff 10 x4      x6                  x4                x6     (x20 overall)

e|--------------    e|--------------    e|--------------    e|--------------
B|--------------    B|--------------    B|--------------    B|--------------
G|--------------    G|--------------    G|--------------    G|--------------
D|----10/12-12--    D|----10/12-12--    D|----10/12-12--    D|----10/12-12--
A|--------------    A|----------12--    A|--------------    A|----------12--
D|--------------    D|--------------    D|--------------    D|--------------
                     

guitars 1 and 2 

4:21 riff 11 x1

e|-----------------------------------
B|---13--13--13--13--13--13--13--13--
G|---12--12--12--12--12--12--12--12--
D|---10--10--10--10--10--10--10--10--
A|---10--10--10--10--10--10--10--10--
D|---10--10--10--10--10--10--10--10--


guitars 1 and 2 

5:12 riff 12 x1

e|-----------------------------------------
B|---13--13--13--13--8--8--8--8---------
G|---12--12--12--12--7--7--7--7---------
D|---10--10--10--10--6--6--6--6---------
A|---10--10--10--10--7--7--7--7---------
D|---10--10--10--10------------------------

order:

0:00 guitar 1- riff 1 x30
0:12 guitar 2- riff 2 x5

1:14 guitar 1- riff 3 x4
1:14 guitar 2- riff 3 x4

2:02 guitar 2- riff 4 x4
2:02 guitar 1- riff 5 x4

2:28 guitar 1- riff 6 x2
2:28 guitar 2- riff 6 x2

2:41 guitar 1- riff 7 x1
2:41 guitar 2- riff 8 x1

2:46 guitar 1- riff 3 x2
2:46 guitar 2- riff 3 x2

*pause* just bass and drums

3:21 guitar 1- riff 3 x2
3:21 guitar 2- riff 3 x2

3:45 guitar 1- riff 9 x20
3.45 guitar 2- riff 10 x20

4:09 guitar 1- riff 4 x2
4:09 guitar 2- riff 5 x2

4:21 guitar 1- riff 11 x1
4:21 guitar 2- riff 11 x1

4:27 guitar 1- riff 4 x2
4:27 guitar 2- riff 5 x2

4:53 guitar 1- riff 6 x3
4:53 guitar 2- riff 6 x3

4:21 guitar 1- riff 11 x1
4:21 guitar 2- riff 11 x1

Thanks!
Comments