Minus - Stranded Chords & Tabs

 

Stranded Chords & Tabs

Minus Chords & Tabs

Version: 1 Type: Tab 0 ratings
1 star 2 stars 3 stars 4 stars 5 stars
comments

Stranded Tab

BAND : [minus]
SONG : Stranded
TABBER : Brian Whitebread (z3sk8r13@aol.com)

minus rocks and u know it. listen to the song and ull 
be able to figure were everything goes

INTRO - VERSE - CHORUS1
|-----------------------------------------------------|
|-----------------------------------------------------|
|-6------7-----9-----11-----4------2-----9-----11-----|
|-6-(16)-7-(8)-9-(4)-11-(4)-4-(16)-2-(8)-9-(4)-11-(4)-|
|-4------5-----7------9-----2------0-----7-----9------|
|-----------------------------------------------------|
[ Tab from: http://www.guitartabs.cc/tabs/m/minus/stranded_tab.html ]
BRIDGE1
|-----------------------------------------------------|
|-----------------------------------------------------|
|-6-7-6-7-6-7--6-7-6-7-6-2--6-7-6-7-6-7--6-7-6-7-9-2--|
|-----------------------------------------------------|
|-----------------------------------------------------|
|-----------------------------------------------------|

BRIDGE2
|------------|
|------------|
|---6-7-6-7--|
|-4----------|
|------------|
|------------|

CHORUS2
|----------------|
|----------------|
|-6-6-6--6-7--9--|
|-6-6-6----7--9--|
|-4-4-4----5--7--|
|----------------|

CHORUS3
|------------------------|
|------------------------|
|-11-11--11----13-14-13--|
|-11-11------------------|
|--9--9------9-----------|
|------------------------|


Comments