Minus - Savior Chords & Tabs

 

Savior Chords & Tabs

Minus Chords & Tabs

Version: 1 Type: Tab 0 ratings
1 star 2 stars 3 stars 4 stars 5 stars
comments

Savior Tab

   
BAND:	[MINUS]
ALBUM:	STRUCTURE OF SIMPLICITY
SONG:	SAVIOR
TABBER:	firedragon

We all know Minus rocks so, let's get to the point...

This is the pattern of the song:	INTRO A A B A B B C B B D C B B D


*INTRO*

D#:----------------------------------------------------------------|
A#:----------------------------------------------------------------|
F#:----------------------------------------------------------------|
C#:-------7-----7-----7-----7-----7-------7----7----8p7---7----7---|
G#:----------------------------------------------------------------|
C#:----88----88----88----88----88------55---55---55-----5---55-----|
	P.M.

D#:------------------------------------------------|
A#:------------------------------------------------|
F#:------------------------------------------------|
C#:----7----7----8-----7-----8-----7----7-----7----|
G#:------------------------------------------------|
C#:-88---88---88----88----88----55---55----55------|


*A*

D#:------------------------------------------------------------|
A#:------------------------------------------------------------|
F#:------------------------------------------------------------|
C#:------7-----7-----7-----7-----7-----7----7----8p7---7----7--|
G#:------------------------------------------------------------|
C#:---88----88----88----88----88----55---55---55-----5---55----|

out from the isles...
[ Tab from: http://www.guitartabs.cc/tabs/m/minus/savior_tab.html ]
D#:----------------------------------------------------------|
A#:----------------------------------------------------------|
F#:----------------------------------------------------------|
C#:---7----7----8-----7-----8-----7----7-----8p7----7----7---|
G#:----------------------------------------------------------|
C#:88---88---88----88----88----55---55----55-----5---55------|



D#:-----------------------------------------------------------|
A#:-----------------------------------------------------------|
F#:-----------------------------------------------------------|
C#:------7-----7-----8----7-----8-----7----7----8p7----7----7-|
G#:-----------------------------------------------------------|
C#:---88----88----88---88----88----55---55---55----5---55-----|


D#:---------------------------------------------------------|
A#:---------------------------------------------------------|
F#:---------------------------------------------------------|
C#:----7-----8----10-----8----7-----7----7----8p7---7----7--|
G#:---------------------------------------------------------|
C#:88----88---88------88----88----55---55---55----5---55----|


*B*
	           3 TIMES  |
D#:------------------------------|--------------------------|
A#:------------------------------|--------------------------|
F#:------------------3-----------|--------------------------|
C#:----3--3-0-3-5-0--3-----------|---3--3-0-3-5-0-----------|
G#:----3--3-0-3-5-0--1-----------|---3--3-0-3-5-0-----------|
C#:----3--3-0-3-5-0--------------|---3--3-0-3-5-0-----------|

if i finally saved you...

*C*
		4 TIMES
D#:-------------------------------|
A#:-------------------------------|
F#:-----------------3-------------|
C#:----5------3-----3-------------|
G#:----5------3-----1-------------|
C#:----5------3-------------------|

each time i reached out...

*D*

		4 TIMES
D#:----------------------------------|
A#:----------------------------------|
F#:----------------------------------|
C#:------------------------7-8-------|
G#:----------------------------------|
C#:---------------8----5-------------|

    [BASS plays]
Comments