Minus - Fathers Eyes Chords & Tabs

 

Fathers Eyes Chords & Tabs

Minus Chords & Tabs

Version: 1 Type: Tab 0 ratings
1 star 2 stars 3 stars 4 stars 5 stars
comments

Fathers Eyes Tab

   
"Father's Eyes" by [MINUS]
Transcribed by raincoat@xmail.com
http://twentynine.envy.nu

Tuning: Db Ab Db Gb Bb Eb

riff 1
eb|--------------------------------|
bb|--------------------------------|
gb|--------------------------------|
db|-8/7-0-7/8-0-8/7-0-7/8-0-8/5-5--|
ab|-8/7-0-7/8-0-8/7-0-7/8-0-8/5-5--|
db|-8/7-0-7/8-0-8/7-0-7/8-0-8/5-5--|

fill 1
eb|--------------------------------|
bb|--------------------------------|
gb|--------------------------------|
db|--------------------------------|
ab|--------------------------------|
db|-8/7-0-7/8-0-8/7-0-7/8-0-8/5-5--|

riff 2
eb|------|-----10-9-10-9-12-|
bb|------|------------------|
gb|------|------------------|
db|-00---|-00---------------|
ab|-00---|-00---------------|
db|-00---|-00---------------|
    ..     .. p.m.
[ Tab from: http://www.guitartabs.cc/tabs/m/minus/fathers_eyes_tab.html ]
riff 3
eb|---------------------------------------------------------------|-----------------------|
bb|---------------------------------------------------------------|-----------------------|
gb|-----------------131313-888-999-111111-------------------------|-131313-888-999-111111-|
db|-5-5-5-5-9-9-9-9-x-x-x--xxx-xxx-x-x-x--3-3-7-7-5-5-5-5-9-9-9-9-|-x-x-x--xxx-xxx-x-x-x--|
ab|-5-5-5-5-9-9-9-9-111111-666-777-9-9-9--3-3-7-7-5-5-5-5-9-9-9-9-|-111111-666-777-9-9-9--|
db|-5-5-5-5-9-9-9-9-----------------------3-3-7-7-5-5-5-5-9-9-9-9-|-----------------------|
                                                  play again to repeat + repeat at end ^

riff 2
riff 3

riff 4
eb|-----------------------------------|
bb|-----------------------------------|
Gb|-9999999999999999-7777777777777777-|
Db|-9999999999999999-7777777777777777-|
Ab|-7777777777777777-5555555555555555-|
Db|-7777777777777777-5555555555555555-|

bass fill 
riff 1

riff 3 clean
riff 3 distorted

riff 5
eb|--------------------------------------------------------|
bb|--------------------------------------------------------|
Gb|-13131313131313131313131313131313-9999999999999999-////-|
Db|-13131313131313131313131313131313-9999999999999999-////-|
Ab|-11111111111111111111111111111111-7777777777777777-////-|
db|--------------------------------------------------------|
Comments