Minor Threat - Think Again Chords & Tabs

 

Think Again Chords & Tabs

Minor Threat Chords & Tabs

Version: 1 Type: Tab 0 ratings
1 star 2 stars 3 stars 4 stars 5 stars
comments

Think Again Tab

   
tabbed by: kord84@yahoo.com
artist: minor threat
song: think again
 
intro 
e---------------------------------------
b---------------------------------------
g---------------------------------------
d-2-1----2-2-1-4-4---2-1----2-2-1-4-4---
a-----0-2---------0-2----0-2---------0-2
e----2------------------2---------------

verse a             verse b
e------------------------
b------------------------
g-7---7----7-------------
d-5-9-5-77-5----------5-7
a---7---55---5-777--33355
e------------3-555--11-3-
[ Tab from: http://www.guitartabs.cc/tabs/m/minor_threat/think_again_tab.html ]
chorus 
e-----------------------------------------
b-----------------------------------------
g-----------------------------------------
d-8888777788887777888888881010101010101010
a-6666555566665555666666668-8-8-8-8-8-8-8-
e-----------------------------------------

solo
e--------------
b--------------
g-(7)-------7--
d-(5)--7--7-5--
a-----55-5---57
e------------35
()=let ring 

verse b  verse c
e-------------
b-------------
g----------5-7
d---5-7--33355
a-33355--11-3-
e-11-3--------

last chorus
e-------------------------------------------
b-------------------------------------------
g-------------------------------------------
d-8888777788887777888888881010101010101010-5
a-6666555566665555666666668-8-8-8-8-8-8-8--3
e-------------------------------------------

order of music
intro 1x
verse a 4x
verse b 4x
chorus
verse a 6x
verse b 4x
solo 1x
verse a 2x
verse b 4x
chorus
verse b 4x
verse c 4x
chorus
Comments