Minor Threat - Stumped Chords & Tabs

 

Stumped Chords & Tabs

Minor Threat Chords & Tabs

Version: 3 Type: Bass Tab 0 ratings
1 star 2 stars 3 stars 4 stars 5 stars
comments

Stumped Bass Tab

Minor Threat
Stumped
Bass Tabs

INTRO 9x
G:------------------------------------|
D:------------------------------------|
A:-----5~--8~--3~---------------------|
E:--3~--------------------------------|
[ Tab from: http://www.guitartabs.cc/tabs/m/minor_threat/stumped_btab_ver_3.html ]
VERSE/CHORUS (REST OF SONG)
G:----------------------------------------------|
D:----------------------------------------------|
A:-----------5-5-5-5--7-7--8-8-8-8--3-3-3-3-3-3-|
E:--3-3-3-3-------------------------------------|

this is a really easy song to play really easy. theres some parts youll have
to figure out on your own, have fun
Comments