Minor Threat - Stumped Chords & Tabs

 

Stumped Chords & Tabs

Minor Threat Chords & Tabs

Version: 2 Type: Bass Tab 0 ratings
1 star 2 stars 3 stars 4 stars 5 stars
comments

Stumped Bass Tab

Song:Stumped
Band: Minor Threat
Album:Complete Discography
tabbed by:O dog


[ Tab from: http://www.guitartabs.cc/tabs/m/minor_threat/stumped_btab_ver_2.html ]
Intro:
G:---------------------------------------------------------------
D:-----------3----------------------------------------------------            
A:------5--------5-------------------------------------------------    (x9)
E:--3-----------------3--------------------------------------------


G:---------------------------------------------------------------
D:-----------2--3--------------------------------------------------   (repeat
till the end)
A:-------5----------3----------------------------------------------
E:---3------------------------------------------------------------


Comments