Minor Threat - Seein Red Chords & Tabs

 

Seein Red Chords & Tabs

Minor Threat Chords & Tabs

Version: 1 Type: Tab 0 ratings
1 star 2 stars 3 stars 4 stars 5 stars
comments

Seein Red Tab

song: seein red
by: minor threat

bass intro

intro
E------------------------------------------------------|
B------------------------------------------------------|
G------------------------------------------------------|
D--------9-7-------9-7-------------9-7------------9-7--|
A--7---5-7-5-7---5-7-5--7-777777-5-7-5-7-777777-5-7-5--|
E--5---3-----5---3------5-555555-3-----5-555555-3------|

verse
E-----------------------------------------|
B-----------------------------------------|
G-----------------------------------------|
D--5-55-------------------------7-777777--|
A--3-33-5-55--77-2222--3-333333-5-555555--|
E-------3-33--55-0000--1-111111-----------|
[ Tab from: http://www.guitartabs.cc/tabs/m/minor_threat/seein_red_tab.html ]
chorus
E-------------------------------------------|
B-------------------------------------------|
G-------------------------------------------|
D--------9-7-------9-7-------9-7-------9-7--|
A--7---5-7-5-7---5-7-5-7---5-7-5-7---5-7-5--|
E--5---3-----5---3-----5---3-----5---3------|

end riff
E--------------------------------------------------|
B--------------------------------------------------|
G--------------------------------------------------|
D-------------9-7------------9-7------------9-7----|
A--7-777777-5-7-5-7-777777-5-7-5-7-777777-5-7-5-7--|
E--5-555555-3-----5-555555-3-----5-555555-3-----5--|

timing:
bass intro..2x
intro.......1x
verse.......6x
chorus......1x
verse.......6x
chorus......1x
bass solo...2x
end riff....1x

note that the bass intro and solo are both the same as the end riff, just on bass. i put 
in the timing so you would know how long it is played.
Comments