Minor Threat - Screaming At A Wall Chords & Tabs

 

Screaming At A Wall Chords & Tabs

Minor Threat Chords & Tabs

Version: 1 Type: Bass Tab 0 ratings
1 star 2 stars 3 stars 4 stars 5 stars
comments

Screaming At A Wall Bass Tab

Song: Screaming at a Wall   
Band: Minor Threat
tabbed by: Eeric J


Play notes more than once

Verse: 
G:------------------|---------------------------------------------
D:------------------|-----------5---------------------------------
A:------2---3-------|-----2--3------------------------------------
E:---5---------3----|---5-----------------------------------------
[ Tab from: http://www.guitartabs.cc/tabs/m/minor_threat/screaming_at_a_wall_btab.html ]
Chorus:
G:---------------------------------------------------------------
D:---------------------------------------------------------------
A:---2--3-----4--5-----------------------------------------------
E:---------3--------6--------------------------------------------

Bridge:
G:---------------------------------------------------------------
D:------2--------------------------------------------------------
A:---2-----5-----------------------------------------------------
E:------------5--------------------------------------------------


Comments