Minor Threat - Minor Threat Chords & Tabs

 

Minor Threat Chords & Tabs

Minor Threat Chords & Tabs

Version: 1 Type: Tab 0 ratings
1 star 2 stars 3 stars 4 stars 5 stars
comments

Minor Threat Tab

This is my first tab...so here it is

verse:
play 8 times
E/--------------------------------------------------------------------
B/--------------------------------------------------------------------
G/-7-7-7-7---------9-9-9-9-5------------------------------------------
D/-7-7-7-7-7-7-7-7-9-9-9-9-5-5----------------------------------------
A/-5-5-5-5-7-7-7-7-7-7-7-7-3-5----------------------------------------
E/---------5-5-5-5-----------3----------------------------------------
[ Tab from: http://www.guitartabs.cc/tabs/m/minor_threat/minor_threat_tab.html ]
chorus:
play 3 times
E/---------------------------------------------------------------------
B/---------------------------------------------------------------------
G/-5-5-5---------------------------------------------------------------
D/-5-5-5-7-7-7---------------------------------------------------------
A/-3-3-3-7-7-7---------------------------------------------------------
E/-------5-5-5---------------------------------------------------------

chorus:  
play 10 times
E/---------------------------------------------------------------------
B/---------------------------------------------------------------------
G/-----7-8-------------------------------------------------------------
D/-6-7-7-8-------------------------------------------------------------
A/-6-7-5-6-------------------------------------------------------------
E/-4-5-----------------------------------------------------------------

then play verse

then play pre chorus

then play chorus
Comments