Minor Threat - In My Eyes Chords & Tabs

 

In My Eyes Chords & Tabs

Minor Threat Chords & Tabs

Version: 2 Type: Bass Tab 0 ratings
1 star 2 stars 3 stars 4 stars 5 stars
comments

In My Eyes Bass Tab

   
Minor Threat - "In My Eyes"
>From the Album "Discography" on Dischord Records
Tabbed by Fish (afisher@warp.nfld.net)

This song is best played in standard tuning (E,A,D,G)

Intro:

G---------------------------------------------|
D---------------------------------------------|
A-7-6-5-------5-7--7-7-7-7-7--7-6-5-------5-7-|
E--------5-7-------------------------5-7------|

Verse:
[ Tab from: http://www.guitartabs.cc/tabs/m/minor_threat/in_my_eyes_btab_ver_2.html ]
G--------------------------|
D--------------------------|
A--------------3---6---8-8-|
E-3-3-3-3-3-3----5---6-----|

Chorus:

G-------------------------------|
D-------------------------------|
A---5-5----5-5------------------|
E-3------3------5-5-5-5-7-7-7-7-|

End of Chorus:

G------------------------------------|
D------------------------------------|
A------------------5-5-5-5-5-5-5-5-5-|
E-0-0-0-0-0-0-0-0--------------------|

Listen to the song to get the order of the parts as well as the timing down, but its not a difficult song.

Tabbed By Fish (Proud Soldier of the Tabbing Army)
Comments