Minor Threat - I Dont Wanna Hear It Chords & Tabs

 

I Dont Wanna Hear It Chords & Tabs

Minor Threat Chords & Tabs

Version: 2 Type: Bass Tab 0 ratings
1 star 2 stars 3 stars 4 stars 5 stars
comments

I Dont Wanna Hear It Bass Tab

From: Butch 
Artist: Minor Threat
Song: I Don't Wanna Hear It
[ Tab from: http://www.guitartabs.cc/tabs/m/minor_threat/i_dont_wanna_hear_it_btab_ver_2.html ]
| |-------------------------------------------------
| |-----------------------------------2-2-2-2---
| |------------------------2-2-2-2--------------     (x4)
| |---2-2-0-2-2-2-2--------------------------


| |-----------------------------------------------
| |----4-4-4-4-2-----------------------------
| |-------------------2-4-4-4-4-2-----------     (x4)
| |-------------------------------------4--------

Repeat the sequence about 4 times


Comments