Minor Threat - Filler Chords & Tabs

 

Filler Chords & Tabs

Minor Threat Chords & Tabs

Version: 1 Type: Bass Tab 0 ratings
1 star 2 stars 3 stars 4 stars 5 stars
comments

Filler Bass Tab

Correction for "Filler" by Minor Threat
Origionally posted by Josh Niemier
Corrected and Reposted by Fish

The intro of this song was origionally posted as the following: 

G----------------------------------------------- 
D-----------------------------------------------
A---------------4-2-0-------------4--2---0------  
E-2-22-22-22-----------2-22-222-----------------
[ Tab from: http://www.guitartabs.cc/tabs/m/minor_threat/filler_btab.html ]
As far as I can tell, this is incorrect. I believe it is played like:

G-----------------
D-4-4-4-4-4----2--
A------------4---0
E-----------------

The Chorus was tabbed correctly in the origional post:

G-------------------------------------------------
D-------------------------------------------------
A-7-7-7-7-7-7--5-5-5-5-5-5-5--0-0-0-0-0-0-0-0-0---
E------------------------------------------------2

Hope this correction helps you out.

-Fish (Proud Soldier of the Tabbing Army)

Comments