Minogue Kylie - Confide In Me Chords & Tabs

 

Confide In Me Chords & Tabs

Minogue Kylie Chords & Tabs

Version: 1 Type: Tab 0 ratings
1 star 2 stars 3 stars 4 stars 5 stars
comments

Confide In Me Tab

   
I didn't actually figure this out myself but it took me ages to find so here it is for all to enjoy 
lyrics would be appreciated
Tuning: Standard (E A D G B E)



Awesome song with very little recognition

Violin transcribed for guitar:


E|----13-12-10----13-12-10----13-12-10----13-15-17----------------||
B|-10----------10----------11----------11-------------------------||
G|----------------------------------------------------------------||
D|----------------------------------------------------------------||
A|----------------------------------------------------------------||
E|----------------------------------------------------------------||

Repeat violin x times

[ Tab from: http://www.guitartabs.cc/tabs/m/minogue_kylie/confide_in_me_tab.html ]
E|----------------------------------------------------------------||
B|----------------------------------------------------------------||
G|----------------------------------------------------------------||
D|-8---------8----------------------------------------------------||
A|-8(hold)-*-8----------------------------------------------------||
E|-6---------6----------------------------------------------------||

* = pause

Play this fill over violin arrangement

Then:

Chorus
E|----------------|----------------|----------------|----------------||
B|----------------|----------------|----------------|----------------||
G|----------------|----------------|----------------|----------------||
D|-7--------------|-7--------------|-8--------------|-7--------------||
A|-7--------------|-7--------------|-8--------------|-7--------------||
E|-5--------------|-5--------------|-6--------------|-5--------------||

Verse - no guitar

Prechorus:

E|----------------||
B|----------------||
G|----------------||
D|----------------||
A|--15--/--7------||
E|----------------||


Fill 1

E|--------------------------------||
B|--------------------------------||
G|-7-6-7-----7-6-7----------------||
D|-------7---------7--------------||
A|--------------------------------||
E|--------------------------------||

Fill 2

E|--------------------------------||
B|--------------------------------||
G|-7-6-7------7-6-7---------------||
D|-7-6-7-7----7-6-7-7-------------||
A|-5-4-5-7----5-4-5-7-------------||
E|-------5----------5-------------||
Comments