Ministry - Wrong Chords & Tabs

 

Wrong Chords & Tabs

Ministry Chords & Tabs

Version: 1 Type: Tab 0 ratings
1 star 2 stars 3 stars 4 stars 5 stars
comments

Wrong Tab

Ministry - Wrong
From "Houses of the Molé"
As tabbed for guitar by Zephie

Standard tuning:
e]---|
B]---|
G]---|
D]---|
A]---|
E]---|

*****

"You're wrong~
Every time~"

Main Riff (verse/chorus):
|-----------------------------------|
|-----------------------------------|
|-----------------------------------|
|-----------------------------------|
|--4-----4-----4-----4-----4---4----|
|--2-0-0-2-0-0-2-0-0-2-0-0-2-0-2-0--|
pm .................................

Fills:
|---------------------
|---------------------
|---------------------
|---4-4-4-4-5-5-5-5---
|---4-4-4-4-5-5-5-5---
|---2-2-2-2-3-3-3-3---

Breakdown (pre-solo):
(* Sounds like some pick sliding on the middle strings with a LOT of echo and effects
while the bass does its stuff)

"Tonight I have a message for the people of Iraq..."


Solo Riff A:
||o-------------------------------------------o||
||o--12-12-12-11-11-11-9-9-9--9-11-9-12-11-9--o||
||---------------------------------------------||
||---------------------------------------------||
||---------------------------------------------||
||---------------------------------------------||
[ Tab from: http://www.guitartabs.cc/tabs/m/ministry/wrong_tab.html ]
Solo Riff B
||o----------------------------------------------------o||
||o--12-12-12-11-11-11-9-9-9--11-11-11-11-12-12-12-12--o||
||----------------------------11-11-11-11-12-12-12-12---||
||------------------------------------------------------||
||------------------------------------------------------||
||------------------------------------------------------||

* Wah and chorus/slight echo'll make this little ditty killer

Solo timing:
---------------
Solo Riff A x 3
Solo Riff B x 1
Solo RIff A x 3
Solo Riff B x 1
---------------


*****

Lyrics reprint:

"You're wrong~
Every time~" x 2

What makes you think you've got a god-given right
For killing people in a needless fight
You're like a rapist with a target in sight
Democracy

Whoever told you that you were bright
The skull and bones the conservative right
You're like a plague turning day into night
Atrocity

"You're wrong~
Every time~" x 2

What makes you think that you could start this mess
Then crawl away to a world you detest
You're fuckin' evil, but you couldn't care less
Conspiracy

What makes you think that we could ever believe
A major liar with a minor in greed
You make a profit of the people in need
Hypocrisy

"You're wrong~
Every time~" x 2

Your time is coming and it won't be long
The bill of rights is now the bill of wrong
Already proven that you don't belong
In history

Your time is over - You'll be out on the street
What do you say to the people you meet
I saved the world because I didn't repeat
My policy

*****

Sounds close to accurate to me. =)  But then again, I don't have an array of pedals to
try out all the effects... so those descending five notes in the chorus *might* be
guitar, but I think they're synth notes.

 - Zephie

Corrections/hate mail: zephir17@yahoo.com
Comments