Ministry - Wrong Chords & Tabs

 

Wrong Chords & Tabs

Ministry Chords & Tabs

Version: 1 Type: Bass Tab 0 ratings
1 star 2 stars 3 stars 4 stars 5 stars
comments

Wrong Bass Tab

Ministry - Wrong
From "Houses of the Molé"
As tabbed for bass by Zephie

Standard tuning:
G]---|
D]---|
A]---|
E]---|

*****

Intro/Verse:
|o--------------------------o|
|o--------------------------o|
|----------------------------|
|---1--0--0--0--1b--0--0--0--|


Fills:
|---------------------
|---------------------
|---------------------
|---1-1-1-1-2-2-2-2---

[ Tab from: http://www.guitartabs.cc/tabs/m/ministry/wrong_btab.html ]
Chorus:
|o------------------------------------------------o|
|o------------------------------------------------o|
|--------------------------------------------------|
|---2b--0--0--2--0--0--1b--0--0--1--0--0--0--0--0--|

 "You're wrong...
Every time"


Breakdown (pre-solo)
|---------------------|
|---------------------|
|---------------------|
|---0-1---0---0---0---|

"Tonight I have a message for the people of Iraq..."

*****

Sounds accurate to me. =)  The bass part is really much simpler than the guitar part,
but mucho kickass nonetheless.

 - Zephie

Corrections/hate mail: zephir17@yahoo.com
Comments