Ministry - Paisley Chords & Tabs

 

Paisley Chords & Tabs

Ministry Chords & Tabs

Version: 1 Type: Bass Tab 0 ratings
1 star 2 stars 3 stars 4 stars 5 stars
comments

Paisley Bass Tab

-------------------------------------------------------------------------------
                              Ministry - Paisley
-------------------------------------------------------------------------------
Album : Escape from L.A (1996)
Tempo : 88
E-mail: gwendal.mollo@orange.fr
Tabbed by: newg

Check my Guitar pro 6 tab

Let Ring all the notes.

Intro
                                                        \
G|--------------------|        G|--------------------|   |
D|--------------------|        D|--------------------|   |
A|--------------------|        A|--------------------|   |
E|---0----------------| x3     E|---0-------------3--|   |x3     
                                                        /

G|--------------------|        G|--------------------|
D|--------------------|        D|--------------------|
A|--------------------|        A|--------------------|
E|---0----------------| x3     E|---3-- Let Ring ----|
                                                                            


Verse 1
                                                         \
G|--------------------|        G|--------------------|    |
D|--------------------|        D|--------------------|    |
A|--------------------|        A|--------------------|    |
E|---0----------------| x2     E|---3----------------|x2  | x4    
                                                         /

Verse 2 & 3

G|--------------------|----------------------|------------|------------|   
D|--------------------|----------------------|------------|------------|
A|--------------------|----------------------|------------|------------|
E|---0----------------|---0-----------5---7--|---3--------|---3--------|

G|--------------------|----------------------|------------|-----------------|
D|--------------------|----------------------|------------|-----------------|
A|--------------------|----------------------|------------|-----------------|
E|---0----------------|---0-----------5---7--|---3--------|--3-------5---7--|

G|--------------------|----------------------|------------|------------|   
D|--------------------|----------------------|------------|------------|
A|--------------------|----------------------|------------|------------|
E|---2-----------3--5-|---1---- Let Ring ----|- Let Ring -|- Let Ring -|
                                                         

[ Tab from: http://www.guitartabs.cc/tabs/m/ministry/paisley_btab.html ]
Reapeat Intro           
                                                        
G|--------------------|        G|--------------------|   
D|--------------------|        D|--------------------|   
A|--------------------|        A|--------------------|   
E|---0----------------| x3     E|---0-------------3--|       
                                                        
G|--------------------|        G|--------------------|
D|--------------------|        D|--------------------|
A|--------------------|        A|--------------------|
E|---0----------------| x3     E|---3-- Let Ring ----|
                                                                                                   
Verse 3


Bridge 

G|--------------------|-------------|------------------|------------|   
D|--------------------|-------------|------------------|------------|
A|---5--------------3-|---5---------|--3------------2--|--3---------|
E|--------------------|-------------|------------------|------------|

G|--------------------|-------------|------------------|-----------------|   
D|--------------------|-------------|------------------|-----------------|
A|--2---------------5-|--2----------|---3-----------2--|--3-------------2|
E|--------------------|-------------|------------------|-----------------|

G|--------------------|-------------|------------------|------------|   
D|--------------------|-------------|------------------|------------|
A|--------------------|-------------|------------------|------------|
E|---5--------------3-|--5----------|---0--------------|--0---------|

G|--------------------|-------------|-------------|------|------| 
D|--------------------|-------------|-------------|------|------|
A|--------------------|-------------|-------------|------|------|
E|---2----------------|--2----------|---1-------- Let Ring -----|


Outro
                                                                     \
G|--------------------|     G|------------------|------------------|  |
D|--------------------|     D|------------------|------------------|  |
A|-----------------2--|     A|----------------2-|----------------2-|  |
E|---0----------3-----| x2  E|---2---------5----|---3---------5----|  |x3    
                                                                     /
G|--------------------|     G|------------------|------------------|  
D|--------------------|     D|------------------|------------------|  
A|-----------------2--|     A|----------------2-|------------------|  
E|---0----------3-----| x2  E|---2---------5----|--1---- Let Ring--|  




Intro
Verse 1
Verse 2
Riff Intro
Verse 3
Bridge
Outro
Comments