Ministry - Leper Chords & Tabs

 

Leper Chords & Tabs

Ministry Chords & Tabs

Version: 1 Type: Tab 0 ratings
1 star 2 stars 3 stars 4 stars 5 stars
comments

Leper Tab

   
Standard tuning EADGBE
This is just the distorted guitar that hits in about 4:02
and continues through the end of the song.
[ Tab from: http://www.guitartabs.cc/tabs/m/ministry/leper_tab.html ]
Riff A
-----------------------------------
-----------------------------------
-----3-----3---3-----6-----6---6---
-----3-----3---3-----6-----6---6---
-----1-----1---1-----4-----4---4---
-0000--0000--00--0000--0000--00----
 xxxx  xxxx  xx  xxxx  xxxx  xx     All the 0's are slightly palm-muted.

Do this one time then do this

Riff B
-----------------------------------
-----------------------------------
-----3-----3---3-----3-----3---3---
-----3-----3---3-----3-----3---3---
-----1-----1---1-----1-----1---1---
-0000--0000--00--0000--0000--00----
 xxxx  xxxx  xx  xxx   xxxx  xx     All the 0's are slightly palm-muted.

Structure: Riff A followed by Riff B over and over again until song finishes.
Comments