Minibosses - Mega Man 2 Chords & Tabs

 

Mega Man 2 Chords & Tabs

Minibosses Chords & Tabs

Version: 1 Type: Tab 0 ratings
1 star 2 stars 3 stars 4 stars 5 stars
comments

Mega Man 2 Tab

   
----------------------------------------------------------------------------
			   Mega Man 2 - The Minibosses
----------------------------------------------------------------------------
Tabbed by:ak Gitaroo Man
Email:alvinoncillo@hotmail.com

Tuning:normal EADGBe

this tab mostly contains the lead part
i'll call each parts stages because i
forgot which sections go to which boss's stage

 *password screen
e|-------------------------------|----11-----------------------------------|
B|14-14-13-13-13-12-12-----------|-12--------------------------------------|
G|---------------------13---13-13|-----------------------------------------|
D|-------------------------------|-----------------------------------------|
A|-------------------------------|---play line four times------------------|
E|---------end here fourth time->|-----------------------------------------|

 *stage select         this line has two parts
e|-------------------------------|----6-----8-----7-----6------------------|
B|----6-----9-----8-----7--------|--6-----6-----6-----6-----6-8-9----------|
G|--6-----6-----6-----6-----6-8-9|6-----6-----6-----6-----6----------------|
D|8-----8-----8-----8-----8------|-----------------------------------------|
A|-------------------------------|-----------------------------------------|
E|-------play eight times--------|----play 2nd, 4th, 6th, and 8th times----|
  . .   . .   . .   . .   . .     . .   . .   . .   . .   . .
 *stage intro
e|------------------------------------------------14-14-14---15-13----13-15|
B|13-13-13-13-11-13---15-15-15-15-13-15---16-16-16-----------------16------|
G|-------------------------------------------------------------------------|
D|-------------------------------------------------------------------------|
A|-------------------------------------------------------------------------|
E|-------------------------------------------------------------------------|

 *first stage
e|--|----------------------------------------------------------------------|
B|--|----------------------------------------------------------------------|
G|10|13-12-11-10-13-12-11-10--10-------------------------------------------|
D|--|----------------------------13-11-10--11-13--------10-----------------|
A|--|--------------------------------------------11--13----13--------------|
E|--|<-start here second time-------------play two times-------------------|

e|-------------------------------------------------------------------------|
B|-----------------------13-13-13-13-13-13---------------------------------|
G|-------------------------------------------go to second stage------------|
D|---10----11----13--------------------------the third time you------------|
A|13----13----13----13----------------------------get here-----------------|
E|-------------------------------------------------------------------------|

e|---------------------------------13--------------------------------------|
B|11----9-11-11-11----9-10-11-9-11----11-10--------------------------------|
G|---10------------10------------------------------------------------------|
D|-------------------------------------------------------------------------|
A|-------------------------------------------------------------------------|
E|-------------------------------------------------------------------------|

e|-------------------------------------------------------------------------|
B|9------9-9-9-7-9-13-11-9-9------9-9-13-13--------------------------------|
G|--8-10---------------------8-10------------------------------------------|
D|-------------------------------------------------------------------------|
A|-------------------------------------------------------------------------|
E|-------------------------------------------------------------------------|

e|---------------------11-12-13-XXXXXX-13-11-------------------------------|
B|11-9----9-11-9-11-12--------some really----14-13-11----------------------|
G|-----10-------------------random notes on-----------14-------------------|
D|---------------------------the e string----------------------------------|
A|--------------------------(can't figure----------------------------------|
E|-----------------------------them out)-----------------------------------|

e|------15h16------------------|-----------------------------|-------------|
B|15h16-------15b16r15-13-12-11|-----------------------------|-----14-13---|
G|-----------------------------|13-11-10---------------------|10-----------|
D|-----------------------------|---------13-11-10----10-11-13|-------------|
A|-----------------------------|------------------13---------|-------------|
E|-----------------------------|-tremolo pick these notes----|-------------|

e|-------------------------------13------------------16-16-14-14-13--------|
B|----------------------------14----16-16-16-16-16------------------16-----|
G|15-15-15-13-15--15-15-13-15----------------------------------------------|
D|-------------------------------------------------------------------------|
A|-------------------------------------------------------------------------|
E|-------------------------------------------------------------------------|

e|-------------------------------13------------13--------------------------|
B|----------------------------14----16---16-14----------------go back to---|
G|15-15-15-13-15--15-15-13-15-----------------------10-----------the-------|
D|-----------------------------------------------------11-13--beginning----|
A|-------------------------------------------------------------of first----|
E|---------------------------------------------------------stage and repeat|

 *second stage
e|-------------------------------------------------------------------------|
B|-------------------------------------------------------------------------|
G|-------------------------------------------------------------------------|
D|5-6-8-5b6r5---5-3---3-5---55---55------play two times--------------------|
A|-------------------------------------------------------------------------|
E|------------------------3----3----3--------------------------------------|

e|-------------------------------------------------------------------------|
B|-------------------------------------------------------------------------|
G|-----------------------------7-7-7----7-7-7-7----7-----------------------|
D|10-10-10-8----10-10-10-8-10--------10---------10-------------------------|
A|-----------11------------------------------------------------------------|
E|-------------------------------------------------------------------------|

e|-------------------------------------------------------------------------|
B|-------------------------------------------------------------------------|
G|-----------------------------7-7-7-----------7---------------------------|
D|10-10-10-8----10-10-10-8-10--------10----9-9---9-------------------------|
A|-----------11-------------------------10---------------------------------|
E|-------------------------------------------------------------------------|

e|---------15-------------------------------18-16--------------------------|
B|16-16-18----18-16-16-18-15-16-15-----------------------------------------|
G|---------------------------------17-15-15--------------------------------|
D|-------------------------------------------------------------------------|
A|-------------------------------------------------------------------------|
E|-------------------------------------------------------------------------|

e|15---15-------18-16-15---20-19------19-22--------------------------------|
B|--------18-16--------------------20--------------------------------------|
G|-------------------------------------------------------------------------|
D|-------------------------------------------------------------------------|
A|-------------------------------------------------------------------------|
E|-------------------------------------------------------------------------|

e|-------------------------------------------------------------------------|
B|-------------------------------------------------------------------------|
G|------------------------12----15-13-12-----------------------------------|
D|5--33--1--33------13-15----15----------15-13-12--------------------------|
A|6--55--3--55---15--------------------------------------------------------|
E|-------------------------------------------------------------------------|

e|------------------------------------------10-13-15-----------------------|
B|---------------------------------------12--------------------------------|
G|------------------------12----15-13-12-----------------------------------|
D|5--33--1--33------13-15----15--------------------------------------------|
A|6--55--3--55---15---------------------------go back to second line of----|
E|--------------------------------------------second stage and repeat------|

 *third stage
e|---------------------------------------------7-7-5-----------------------|
B|-----------------------------7778-7778--7778-------8-7-------------------|
G|----4-7-6---5-4----------------------------------------------------------|
D|--5-------7-----5-7-5----------------------------------------------------|
A|7---------------------7-5-7----------------------play three times--------|
E|-------------------------------------------------------------------------|
[ Tab from: http://www.guitartabs.cc/tabs/m/minibosses/mega_man_2_tab.html ]
e|-------------------------------------------------------------------------|
B|-----------------------------7778-7778--10-10-10-10-8-/12\5/8------------|
G|----4-7-6---5-4----------------------------------------------------------|
D|--5-------7-----5-7-5---------------------------------don't pick the-----|
A|7---------------------7-5-7---------------------------slides to----------|
E|------------------------------------------------------5 and 8------------|

e|-------------------------------------------------------------------------|
B|--12-10-12-10----10-12-------------------------------10------------------|
G|9-------------12-------9---12-11-11-11-9----9---9-12---------------------|
D|-----------------------------------------12------------------------------|
A|-------------------------------------------------------------------------|
E|-------------------------------------------------------------------------|

e|-------------------------------------------------------------------------|
B|--12-10-12-10----10-12-----------------10-----------12-------------------|
G|9-------------12-------9---12-11-11-12----11-9---12----------------------|
D|-------------------------------------------------------------------------|
A|-------------------------------------------------------------------------|
E|-------------------------------------------------------------------------|

e|10---9--8----------------------------------------------------------------|
B|-----------8-------8-10-11-12-11-12-10-8---------------------------------|
G|-------------9---9-----------------------9-7-----------------------------|
D|-------------------------------------------------------------------------|
A|-------------------------------------------------------------------------|
E|-------------------------------------------------------------------------|

e|10---9--8---------------12----11----------17-19--------------------------|
B|-----------8-------8-10----12----12-16-19----------go back to------------|
G|-------------9---9---------------------------------second line-----------|
D|---------------------------------------------------and repeat------------|
A|---------------------------------------------------til next--------------|
E|---------------------------------------------------stage-----------------|

 *boss intro
e|---------------------------------------------------------14--------------|
B|----10---------------13----------------16-------------------16---13------|
G|-------11-8-------------14-11-------------17-14------14--------14--------|
D|10----------10---13-----------13---16-----------16-----------------------|
A|-------------------------------------------------------------------------|
E|-------------------------------------------------------------------------|

 *boss battle/fourth stage (not really sure)
e|---15-15-13-15--------15--15-13-15-------15--15-13-15--------------------|
B|-------------------------------------------------------------------------|
G|-----fos = figure out strumming--------------------------------------12\-|
D|10------------------8--------------------------------12-------9--12-slide|
A|fos-----------------fos---------------12-------------fos--10---third time|
E|--------------------------------------fos--------play three times--------|

 *stage clear
e|---------------------14----14-16-----------------------------------------|
B|14-14--16-16--17-17-----17-----------------------------------------------|
G|-------------------------------------------------------------------------|
D|-------------------------------------------------------------------------|
A|-------------------------------------------------------------------------|
E|-------------------------------------------------------------------------|

 *interlude? (not really sure what this is)
e|-------------------------------------------------------------------------|
B|-------------------------------------------------------------------------|
G|way too hard hard to distinguish what's what in this section-------------|
D|---------------------sorry no tab----------------------------------------|
A|-------------------------------------------------------------------------|
E|-------------------------------------------------------------------------|

 *final stage/wily's castle
  
  this section can be complicated so i divided into parts and solos with
  a play list

  part 1 2x
  solo 1
  part 1 with solo 2
  part 1 with solo 3
  solo 1
  part 2

  part 1
e|--|----------------------------------------------------------------------|
B|--|----------------------------------------------------------------------|
G|--|999-999-----999-999-----13-11-13--999-999-----13-11-9-11--------------|
D|11|--------11----------11--------------------11--------------------------|
A|--|----------------------------------------------------------------------|
E|--|<-start here when this is repeated------------------------------------|

e|---------------------------------------------------------|-11-12---------|
B|---------------------------------------12-11-11-----12-11|-12-14---------|
G|111111-111111-----13-11-9-----------13-----------13------|-repeat part 1-|
D|--------------13----------13-11--11-----------11---------|-then go to----|
A|-------------------end here when going on to solo parts->|-solo parts----|
E|---------------------------------------------------------|---------------|

  solo 1
e|-------12-----------------------------------12-------------------------16|
B|1214-12--141214-12-1214--------------1214-12--141214-12-12--1213-131316--|
G|------------------------131413-----13---------------------13-------------|
D|------------------------------14-14--------------------------------------|
A|-------------------------------------------------------------------------|
E|-------------------------------------------------------------------------|

  solo 2
e|-------------------------------------------------------------------------|
B|-------------------------------------------------------------------------|
G|-----4------------4------------------------------------------------------|
D|6---4--7-6-7-6---4--7-6-7-----6------------------------------------------|
A|--------------------------7-79-6-----------------------------------------|
E|-------------------------------------------------------------------------|

  solo
e|--------------------12-161412-------12-1214--------16-14-12--------------|
B|1214-1414141214-1214--------1614-1214-----16-161412-------16-16171614-14-|
G|-------------------------------------------------------------------------|
D|-------------------------------------------------------------------------|
A|-------------------------------------------------------------------------|
E|-------------------------------------------------------------------------|

  part 2
e|-------97-------------------------------97-------------------------------|
B|----------10-9-7-7-99-9--7-99-9------------10-9-7------------------------|
G|9-9989-----------x-xx-x--x-xx-x-89-9989-----------8h9-8------------------|
D|-----------------4-66-6--4-66-6-------------------------11---------------|
A|-------------------------------------------------------------------------|
E|-------------------------------------------------------------------------|

 *outro/credits? (i think this is the credits music)
e|-------------------|-----------------------------------------------------|
B|-------------------|-----------------------------14----------------------|
G|13-----1316-1413---|13-----1316-1413----14-141416--13-131416-------------|
D|-----14----------16|-----14----------16----------------------------------|
A|---16--------------|---16------------------------------------------------|
E|-------play 3 times|-----------------------------------------------------|

e|12-12--------------------------17161719----------------------------------|
B|-----1514----------14-------------------------14-14141514-------14hb-----|
G|---------1615-15-16---14131416------------1114-----------16-1616---------|
D|----------------------------------------12-------------------------------|
A|-------------------------------------------------------------------------|
E|-------------------------------------------------------------------------|

e|----------------------14-------------------------------------------------|
B|--------------------14---14--------14------------------------------------|
G|14-1413141614-141314--------161416--------13-----------------------------|
D|-------------------------------------16-16-------------------------------|
A|-------------------------------------------------------------------------|
E|-------------------------------------------------------------------------|

e|-------------------------------------------------------------------------|
B|------------------15-1412------------------------------------------------|
G|14---------14--13---------14-171614--171614------------------------------|
D|---1612--16--14------------------------------15--151517----------------14|
A|-------12---------------------------------you better have lost of sustain|
E|----------------------------------------------to hold this last note-----|

| X  random notes (see note in tab)
| x  muted note
| hb quick half bend
| r  release bend
| b  bend
| .  palm mute
| /  slide up
| \  slide down
| h  hammer-on
| p  pull-off
| ~  vibrato
| +  harmonic
============================================================================
Comments