Ming Tea - Daddy Wasnt There Chords & Tabs

 

Daddy Wasnt There Chords & Tabs

Ming Tea Chords & Tabs

Version: 3 Type: Tab 0 ratings
1 star 2 stars 3 stars 4 stars 5 stars
comments

Daddy Wasnt There Tab

Artist- Ming Tea and Austin Powers
Title-Daddy Wasn't There
Album- Austin Powers Goldmember soundtrack
www.austinpowers.com
appeared on austin powers goldmember 
austin was the lead singer

Tabbed By Jake D

pm=palm mute
s=slide
~=tremolo
h=hammer on
p=pull off

Intro/Verse(w/distortion)
e-------2--2h3p2h3p2h3p2-----------------------------------------
b-------3--------------------------------------------------------
g-------2---------------------(x10)------------------------------
D----------------------------------------------------------------
A--0-0-----------------------------------------------------------
E--0-0-----------------------------------------------------------
  pm--
[ Tab from: http://www.guitartabs.cc/tabs/m/ming_tea/daddy_wasnt_there_tab_ver_3.html ]
End Of Verse
e-----2------2-----3-3-3-3-3-3-3-3-3-3---------------------------
b-----3------3-----3-3-3-3-3-3-3-3-3-3---------------------------
g-----2------2-----0-0-0-0-0-0-0-0-0-0---------------------------
D------------------0-0-0-0-0-0-0-0-0-0---------------------------
A-0-0----0-0-------2-2-2-2-2-2-2-2-2-2---------------------------
E-0-0----0-0-------3-3-3-3-3-3-3-3-3-3---------------------------
 pm--   pm--
To take me...     It seems he doesnt......

Chorus
e--3-3-3-3----0-0-0-0----------------------------------------------
b--3-3-3-3----1-1-1-1----------------------------------------------
g--0-0-0-0----0-0-0-0----------------------------------------------
D--0-0-0-0----2-2-2-2-(x4)-----------------------------------------
A--2-2-2-2----3-3-3-3----------------------------------------------
E--3-3-3-3---------------------------------------------------------
 first baptized......

 Solo/Fill
e---------------------------------------------------------------
b-----------------------------15s17-19p17-----------------------
g---------------------------------------------------------------
D--17~~~~~~~--17~~~~~~~~~~~~------------------------------------
A---------------------------------------------------------------
E---------------------------------------------------------------

Order
Verse(x2)
Chorus
Solo
Chorus
Comments