Mineral - July Chords & Tabs

 

July Chords & Tabs

Mineral Chords & Tabs

Version: 1 Type: Tab 0 ratings
1 star 2 stars 3 stars 4 stars 5 stars
comments

July Tab

JULY

Intro
Guitar 1
E ------------------------
B ------------------------
G -12-11-9-11-12-11-9-7---
D ------------------------
A -10-9--7-9--10-9--7-5---
E ------------------------

[ Tab from: http://www.guitartabs.cc/tabs/m/mineral/july_tab.html ]
Guitar 2
E ----------|-----
B ----15----|-----
G -12H13-12-|-----
D ----------|-0-0-
A ----------|-4-5-
E ----------|-----

*****************************************
Album: The Power of Failing
Comments