Mindscape - Forgive My Thoughts Chords & Tabs

 

Forgive My Thoughts Chords & Tabs

Mindscape Chords & Tabs

Version: 1 Type: Tab 0 ratings
1 star 2 stars 3 stars 4 stars 5 stars
comments

Forgive My Thoughts Tab

Artist: Mindscape
Song: Forgive my Thoughts
Transcribed by: Jeff Lindgren (guitarist of mindscape)

This song is pretty easy.  You just need to have the timing right so you will have to listen to the song.
[ Tab from: http://www.guitartabs.cc/tabs/m/mindscape/forgive_my_thoughts_tab.html ]
    Intro                      Verse   repeat 7x
e -------l--------------------------------------------------------------------------------------------------------------------------------------------------------------------------------
b -------l--------------------------------------------------------------------------------------------------------------------------------------------------------------------------------
g -------l--------------------------------------------------------------------------------------------------------------------------------------------------------------------------------
d -------l--------------------------------------------------------------------------------------------------------------------------------------------------------------------------------
a --332--l-----------6-5-4-----------------6-5-4------------------------------------------------------------------------------------------------------------------------------------------
e --332--l---4-5-6-----------5b--4-5-6------------5-4b------------------------------------------------------------------------------------------------------------------------------------
    
                                                                                           Interlude do one time
e -----------------------------------------------------------------------------------------------------------------------------------------------------------------------------------------
b -----------------------------------------------------------------------------------------------------------------------------------------------------------------------------------------
g -----------------------------------------------------------------------------------------------------------------------------------------------------------------------------------------
d -----------------------------------------------------------------------------------------------------------------------------------------------------------------------------------------
a ----8---8---8---9--9--9----8--8--8---9--9--9----10--10--10----9--------------------------------------------------------------------------------------------------------------------------
e --7---7---7---7--7--7----7--7--7---7--7--7----8----8----8----7---------------------------------------------------------------------------------------------------------------------------
             
                                                                                              Chorus repeat 2x strum very fast
e ----------------------------------------------------------------------------------------------------------------------------------------------------------------------------------------
b ----------------------------------------------------------------------------------------------------------------------------------------------------------------------------------------
g ----------------------------------------------------------------------------------------------------------------------------------------------------------------------------------------
d ----------------------------------------------------------------------- ----------------------------------------------------------------------------------------------------------------
a----------------444444---------------46666-----------------6333--------------6-----------------------------------------------------------------------------------------------------------
e----444555666-------------444555666--------------444555666---------444555666----4444-----------------------------------------------------------------------------------------------------
                    
                                                    Verse 2 Do one time while singer screams "Bibles!!"
e ----------------------------------------------------------------------------------------------------------------------------------------------------------------------------------------
b ----------------------------------------------------------------------------------------------------------------------------------------------------------------------------------------
g ----------------------------------------------------------------------------------------------------------------------------------------------------------------------------------------
d ----------------------------------------------------------------------------------------------------------------------------------------------------------------------------------------
a --55---55--5/12-------------------------------------------------------------------------------------------------------------------------------------------------------------------------
e --55---55--5/12-------------------------------------------------------------------------------------------------------------------------------------------------------------------------
                                           Ending chorus do it regular 2x then like this and let it ring at the end
e ----------------------------------------------------------------------------------------------------------------------------------------------------------------------------------------
b ----------------------------------------------------------------------------------------------------------------------------------------------------------------------------------------
g ----------------------------------------------------------------------------------------------------------------------------------------------------------------------------------------
d ----------------------------------------------------------------------------------------------------------------------------------------------------------------------------------------
a -----------4--------4-6---------6-4---------6--------------------------------------------------------------------------------------------------------------------------------------
e ---4-5-6-----4-5-6-------4-5-6-------4-5-6----4-----------------------------------------------------------------------------------------------------------------------------------------


Order:   Intro
            Verse
            Interlude
            Chorus
            Verse
           Chorus
           Verse
           Verse 2
           Bass Solo
           Ending Chorus

Comments