Mindless Self Indulgence - What Do They Know Chords & Tabs

 

What Do They Know Chords & Tabs

Mindless Self Indulgence Chords & Tabs

Version: 1 Type: Bass Tab

What Do They Know Bass Tab

Verse:
pt.1
G|-----------------|
D|-----------------| x3
A|---------9-9-----|
E|-4-4-7-7-----2-2-|

pt.2
G|-----------------|
D|-----------------| x2
A|---------7-7-----|
E|-3-3-5-5-----0-0-|

Chorus:
G|---------------------|
D|-----------7-------7-| x2
A|---------9---9---9---|
E|-3~-5~-7-------9-----|
[ Tab from: http://www.guitartabs.cc/tabs/m/mindless_self_indulgence/what_do_they_know_btab.html ]
G|-----------------|
D|-----------------|
A|-----------------|
E|-3~-5~-77777777--|

Bridge:
G|--------------------|
D|--------------------|
A|---------9-9--------|
E|-4-4-7-7-----2-2-222|

G|-----------------|
D|-----------------| x4
A|---------7-7-----|
E|-3-3-5-5-----0-0-|


G|-----------------|
D|-----------------|
A|---------9-9-----|
E|-4-4-7-7-----2-2-|

SONG ORDER:
Verse (whole)
Chorus
Verse (whole)
Chorus
Bridge
Verse pt. 2
Chorus
Verse pt. 1