Mindless Self Indulgence - Stupid Mf Chords & Tabs

 

Stupid Mf Chords & Tabs

Mindless Self Indulgence Chords & Tabs

Version: 1 Type: Tab

Stupid Mf Tab

well this sint perfect like my last one most is right but a little off stil this is
only my second tab maybe someone can use this to get a better/perfect tab

intro
e--------------------------------|
b--------------------------------|
g-----5-----5-----5--------------|
d--6-----5-----5-----------3-----|  x2
a--------------------------------|
E--------------------------------|

verse 1
the part where you cant understand one word he says

e--------------------------------|
b--------------------------------|
g--------------------------------|
d--------------555---------------|
a---66666666---333---3333--------| x4
E---44444444---------1111--------|


part after verse 1


e--------------------------------|
b--------------------------------|
g--------------------------------|
d----6-------------------2-------| x1
a----4----8----2----2----0-------|
E---------6----0----0------------|


verse 2?

e-------------------------------|
b-------------------------------|
g-------------------------------|
d---44---44---77----------------| x4
a---22---22---55---77-----------|
E------------------55-----------|


after you play that 4 times do this

[ Tab from: http://www.guitartabs.cc/tabs/m/mindless_self_indulgence/stupid_mf_tab.html ]
e-------------------------------|
b-------------------------------|
g-------------------------------|
d-------3---4---7777------------| x2
a---7---1---2---5555------------|
E---5---------------------------|


chorus
"stupid motha f******"
im just gonna call this verse 2

e------------------------------------------------------------|
b------------------------------------------------------------|
g------------------------------------------------------------|
d------------------------------------------------------------|
a---88888888---66666666---5---stop for 4 beats------55555555-|
E---66666666---44444444---3-------------------------33333333-|


after that go to verse 1 where you dont know what the guy says

then part after verse one then verse 2.. and then we got the breakdown

breakdown

e------------------------|
b------------------------|
g------------------------|
d---8-------8------------|
a-------8-------8--------|
E------------------------|

 then then the breakdown im not sure about the breakdown its deinately off a bit but its close enough


e-----------------------------|
b-----------------------------|
g-----------------------------|
d---------4/55---------777----|
a---555---2/33---777---555----|
E---333----------555----------|

then you play the chorus the "stupid mother f*****"

and after that play verse 1 and thats it


if you wanna email me email me at bsktcase821@aol.com

thank you bye