Mindless Self Indulgence - Straight To Video Chords & Tabs

 

Straight To Video Chords & Tabs

Mindless Self Indulgence Chords & Tabs

Version: 1 Type: Tab 0 ratings
1 star 2 stars 3 stars 4 stars 5 stars
comments

Straight To Video Tab

This is off the new mindless cd "you'll rebel to anyhting"... Guitar 1 is actually a
keyboard but transposed for guitar. Enjoy!


intro/chorus- synth (delay)
|0-12-15-12-14-12----10-12-10-12-10----7-8-7-8-7----5-3-5-3-2-0-|
|-----------------15----------------13-----------10-------------|
|---------------------------------------------------------------|
|---------------------------------------------------------------|
|---------------------------------------------------------------|
|---------------------------------------------------------------|

intro 2/chorus 2 (distortion)
|----------------|
|----------------|
|----------------|
|-2-4-5-9-10-9-7-|
|-2-4-5-9-10-9-7-|
|-2-4-5-9-10-9-7-|
[ Tab from: http://www.guitartabs.cc/tabs/m/mindless_self_indulgence/straight_to_video_tab.html ]
verse (distortion)
|-----------------|
|-----------------|
|-----------------|
|-222-555-777-555-|
|-222-555-777-555-|
|-222-555-777-555-|

pre-chorus (distortion)
|---------------------------------------|
|---------------------------------------|
|--------------------44444444-----------|
|-22222222-7777-5555-44444444-4444-2222-|
|-22222222-7777-5555-22222222-4444-2222-|
|-22222222-7777-5555----------4444-2222-|

interlude (distortion)
|---------------------------|
|---------------------------|
|---------------------------|
|---------------------------|
|---1-2-1-2-1-0-1-0---------|
|-22---2------------7-5-7-5-|

outro (distortion)
|---------------|
|---------------|
|---------------|
|-22-55-1010-99-|
|-22-55-1010-99-|
|-22-55-1010-99-|


everytime intro is played intro 2 is played also...

song order:
intro x2
verse x2
pre chorus x2
intro x2
verse x2
pre chorus x2
intro x4
interlude x8
verse x1
pre chorus x2
intro x2
outro x3
Comments