Mindless Self Indulgence - Shut Me Up Chords & Tabs

 

Shut Me Up Chords & Tabs

Mindless Self Indulgence Chords & Tabs

Version: 2 Type: Tab 0 ratings
1 star 2 stars 3 stars 4 stars 5 stars
comments

Shut Me Up Tab

Band: Mindless Self Indulgence
Song: Shut Me Up
Album: You'll Rebel to Anything (2005)
Time: 2:48.437
Composer: Euringer
Tabbed by: Epoch

Intro:
E----------------------------------|
B----------------------------------|
G----------------------------------|
D-5-5-5-6/7--7-7-7-7-6-------------|
A-5-5-5-6/7--7-7-7-7-6-------------|
D-5-5-5-6/7--7-7-7-7-6-------------|


E-------------------------|--------|
B-------------------------|--------|
G-------------------------|--------|
D-7-7-7-7-6--4-4-4-5/6----|--3--4--|
A-7-7-7-7-6--4-4-4-5/6----|--3--4--|
D-7-7-7-7-6--4-4-4-5/6----|--3--4--|


Chorus:
E----------------------------------|
B----------------------------------|
G----------------------------------|
D-666666-777777-555555---3---34----|
A-666666-777777-555555---3---34----|
D-666666-777777-555555---3---34----|

[ Tab from: http://www.guitartabs.cc/tabs/m/mindless_self_indulgence/shut_me_up_tab_ver_2.html ]
E----------------------------------|
B----------------------------------|
G----------------------------------|
D-666666-777777-555555---33---33---|
A-666666-777777-555555---33---33---|
D-666666-777777-555555---33---33---|


Pre Verse:
E---------------------------|------|
B---------------------------|------|
G---------------------------|------|
D-6----------5----------333-|---3--|
A-6----------5----------333-|---3--|
D-6----------5----------333-|---3--|


Verse:
E----------------------------------|
B----------------------------------|
G----------------------------------|
D-999999-777777-121212121212-------|
A-999999-777777-121212121212-------|
D-999999-777777-121212121212-------|


E----------------------------------|
B----------------------------------|
G----------------------------------|
D-131313141413---------------------|
A-131313141413---------------------|
D-131313141413---------------------|
Comments