Mindless Self Indulgence - I Hate Jimmy Page Chords & Tabs

 

I Hate Jimmy Page Chords & Tabs

Mindless Self Indulgence Chords & Tabs

Version: 1 Type: Tab 0 ratings
1 star 2 stars 3 stars 4 stars 5 stars
comments

I Hate Jimmy Page Tab

MINDLESS SELF INDULGENCE- I Hate Jimmy Page

Tunning: in drop D
[ Tab from: http://www.guitartabs.cc/tabs/m/mindless_self_indulgence/i_hate_jimmy_page_tab.html ]
E----------------------------------------------
B----------------------------------------------
G----------------------------------------------
D----------------------------------------------
A---4-4-----4-4-----4-4-----4-4-----4-4-----4-4
D---4-4-----4-4-----4-4-----4-4-----4-4-----4-4

E----------------------------------------------
B----------------------------------------------
G----------------------------------------------
D----------------------------------------------
A-----4-4------0-2--4-4-4-----4-4-----4-4----4-4
E-----4-4-------------4-4-----4-4-----4-4----4-4
Comments