Mindless Self Indulgence - Faggot Chords & Tabs

 

Faggot Chords & Tabs

Mindless Self Indulgence Chords & Tabs

Version: 4 Type: Tab 0 ratings
1 star 2 stars 3 stars 4 stars 5 stars
comments

Faggot Tab

   
#----------------------------------PLEASE NOTE--------------------------------#
#This file is the author's own work and represents their interpretation of the#
#song. You may only use this file for private study, scholarship, or research.#
#-----------------------------------------------------------------------------#
#-- File created with Instab - http://www.pconline.com/~smcarey/instab.html --#
#-----------------------------------------------------------------------------#

Author/Artist: Mindless Self Indulgence
Title: Faggot
Transcribed by: Geoff
This is 100% correct. Questions, comments, or songs that you want tabbed- stumpy54_05@hotmail.com

Order: Intro A
Intro B
Verse
Chorus
Intro B
Verse
Solo( Half chorus and half intro B with some messed up effects)
Chorus
Intro B
Verse till end

--18--18-18-18-18-18---18-18-18-18-18-18--------------------------------------|
------------------------------------------------------------------------------|
------------------------------------------------------------------------------|
------------------------------------------------------------------------------|
------------------------------------------------------------------------------|
------------------------------------------------------------------------------|
   Intro A
[ Tab from: http://www.guitartabs.cc/tabs/m/mindless_self_indulgence/faggot_tab_ver_4.html ]
------------------------------------------------------------------------------|
------------------------------------------------------------------------------|
---6--6/10--10----------------------------------------------------------------|
---6--6/10--10--9--9----------------------------------------------------------|
---8--8/8---8---9--9----------------------------------------------------------|
----------------7--7----------------------------------------------------------|
      Intro B

------------------------------------------------------------------------------|
------------------------------------------------------------------------------|
-----10-10-----------10-10----------------------------------------------------|
-----10-10---11-11---10-10--9-9-----------------------------------------------|
-----8--8----11-11---8--8---9-9-----------------------------------------------|
-------------9--9-----------7-7-----------------------------------------------|
    verse 1

-------------------------------|----------------|-----------------------------|
-------------------------------|----------------|-----------------------------|
--10-10---13-13--9-9--12-12----|-10-10--13-13--9|--10-10-13-13---9-9-9-9------|
--10-10---13-13--9-9--12-12----|-10-10--13-13--9|--10-10-13-13---9-9-9-9------|
--8--8----11-11--7-7--10-10----|-8--8---11-11--7|--8--8--11-11---7-7-7-7------|
-------------------------------|----------------|-----------------------------|
      Chorus 4x                 2nd time           4th time
Comments