Mindless Self Indulgence - Dicks Are For My Friends Chords & Tabs

 

Dicks Are For My Friends Chords & Tabs

Mindless Self Indulgence Chords & Tabs

Version: 1 Type: Bass Tab 0 ratings
1 star 2 stars 3 stars 4 stars 5 stars
comments

Dicks Are For My Friends Bass Tab

-------------------------------------------------------------------------------
               DICKS ARE FOR MY FRIENDS - Mindless Self Indulgence
-------------------------------------------------------------------------------

Tabbed By : ausmus
e-mail: the_black_jc@hotmail.com

Tuning: EADG (standard)


Intro/Verse
No Bass

(0:19)                         (3x)
G|---------------------------------|----------------|
D|---------------------------------|----------------|
A|---------------------------------|----------------|
E|----2-2-----4-4----5-5----7-7----|-----3-----2----|
   "Dicks... are... for... my..."    "Frieeeeeeeeeeeennnnnds"   
[ Tab from: http://www.guitartabs.cc/tabs/m/mindless_self_indulgence/dicks_are_for_my_friends_btab.html ]
(0:30)
G|-----------------------------|
D|-----------------------------|
A|-----------------------------|
E|-----7-----7-----3-----2-----|
  "Dicks, friends"   "Do do do do do"	

Verse 2
No Bass

(0:47)                         (3x)
G|---------------------------------|----------------|
D|---------------------------------|----------------|
A|---------------------------------|----------------|
E|----2-2-----4-4----5-5----7-7----|-----3-----2----|
   "Dicks... are... for... my..."    "Frieeeeeeeeeeeennnnnds"   


(0:58)                     (2x)
G|-----------------------------|
D|-----------------------------|
A|-----------------------------|
E|-----7-----7-----3-----2-----|
  "Dicks! Friends!"   "Do do do do do"	
  "My! House!"        "Do do do do do"	

(1:09)
G|-----------------|
D|-----------------|
A|-----------------|
E|-----7-----7-----|
   "Dicks! Friends!"
Comments