Mindless Self Indulgence - Clarissa Chords & Tabs

 

Clarissa Chords & Tabs

Mindless Self Indulgence Chords & Tabs

Version: 1 Type: Tab 0 ratings
1 star 2 stars 3 stars 4 stars 5 stars
comments

Clarissa Tab

intro:

e-----------------
b-----------------
g----8-----8-----8
d----8-----8-----8
a----6-----6-----6
e-----------------


verses:
e--------------------
b--------------------
g----8-8---7-7-----11     (Repeat like 5X)
d----8-8---7-7--8--11
a----6-6---5-5--8--9-
e---------------6----
[ Tab from: http://www.guitartabs.cc/tabs/m/mindless_self_indulgence/clarissa_tab.html ]
other verses:
e---------------
b---------------
g----88-10-11-13
d----88-10-11-13        (Repeat this like 4X)
a----66-8--9--11
e---------------

chorus:
e------------------------------
b------------------------------
g----8-8-8----------------11-11
d----8-8-8--8-8-8--9-9-9--11-11       (Rereat maybe 4X)
a----6-6-6--8-8-8--9-9-9--9--9-
e-----------6-6-6--7-7-7-------


Ait, an thats it all u crackas who like MSI as much as i do,
this is a good rock out song by them, which is why i took the
half hour to figure it out, write it down, an bring it to y'all.
-----tabbed by JOHNNY
Comments