Mindless Self Indulgence - Bullshit Chords & Tabs

 

Bullshit Chords & Tabs

Mindless Self Indulgence Chords & Tabs

Version: 1 Type: Tab 0 ratings
1 star 2 stars 3 stars 4 stars 5 stars
comments

Bullshit Tab

   
Name:Ethan Wallace
Song:Bullsh*t
Band:Mindless Self Indulgence


Q/C : thedookieisgood@gmail.com

INTRO
E ---------------------------------|
B -----------7-------6-------------|
G -----8-------8-------7-----6-8-6-|
D ---8---8-9-----9-8-----8-4-------|
A -6-------------------------------|
d ---------------------------------|

PART 1
E ----------------|
B ----------------|
G -8---6---11-8-8-|
D -8---6---11-8-8-|
A -6---4---9--6-6-|
d ----------------|

PART 2
E -----------------------------------------------------------------|
B -----------------------------------------------------------------|
G -----------------------------------------------------------------|
D -8-8-8-8-8-8---------------------9-9-9-9-9-9---------------------|
A -6-6-6-6-6-6-----9-9-9-9-9-9-----7-7-7-7-7-7-----8-8-8-8-8-8-----|
d -----------------9-9-9-9-9-9---------------------8-8-8-8-8-8-----|

PART 2 with one of each chord
PART 1
PART 2
[ Tab from: http://www.guitartabs.cc/tabs/m/mindless_self_indulgence/bullshit_tab.html ]
PART 3
E ---------------------------------|
B ---------------------------------|
G -8-8-8-8-------------------------|
D -8-8-8-8-8-8-8-8-9-9-9-9---------|
A -6-6-6-6-8-8-8-8-9-9-9-9---------|
d ---------8-8-8-8-9-9-9-9---------|

PART 1
PART 2

ACT 4 (in which steve drops acid and tries to play the intro?)
E ---------------------------------- ----------------------------------|
B -------------11-------7-------6--- -----------7----------------------|
G -----8-----8----8---8---8---7---7- -----8-------8--------------------|
D ---8---8-9--------9-------8------- ---8---8-9-----9-8------9----12---|
A -6-------------------------------- -6----------------------9----12---|
d ---------------------------------- ------------------------9----12---|

PART 3
PART 1
INTRO AGAIN
PART 3 with 4 more of the 9th fret chords

then a bunch of accents on this chord
E ---
B ---
G -8-
D -8-
A -6-
d ---

PART 3 with 4 more of the 9th fret chords

END
E ---
B ---
G -8-
D -8-
A -6-
d ---
Comments