Mindless Self Indulgence - Bitches Chords & Tabs

 

Bitches Chords & Tabs

Mindless Self Indulgence Chords & Tabs

Version: 1 Type: Tab 0 ratings
1 star 2 stars 3 stars 4 stars 5 stars
comments

Bitches Tab

Mindless Self Indulgence
"Bitches"
Frankenstein Girls Will Seem Strangely Sexy
Transcribed By: Cody Tatum
----------------------------------------------

 Ok, Tune yer ol' geetar down 1 whole step
(DGCFAD). Turn Up your Gain all the way and
add a little bit of chorus to sweeten the deal.
Ready?
_______________________________________________
[ Tab from: http://www.guitartabs.cc/tabs/m/mindless_self_indulgence/bitches_tab.html ]
-------------------------------------------|
-------------------------------------------|
---------------------------------------3/-4|
-2-2-----------------------------------3/-4|
-2-2-----------------------------------1/-2|
-0-0---------------------------------------|
bitches love me cuz they know that i can rock...

______________________________________________

ah-through out the projects
-------------------------|
-------------------------|
-------------------------|
-------------------------|
-------------------------|
-0--3-0-3--0-1-0-1-0--4-3|

_____________________________________________


thats how it is through the whole song, except for this part at the
end that i havent figured out yet, but, steve only plays a 4 string
guitar, so it shouldnt be too hard.
any questions or comments, please e-mail Deusade@aol.com
Comments